Cifras e Tablaturas
Zequinha de Abreu

Zequinha de Abreu

Os Pintinhos No Terreiro Tablatura Verificada

Compositor : (Zequinha de Abreu)

Cifras Cancelar Versão de Impressão
cifras

Zequinha de Abreu - Os Pintinhos No Terreiro

fixar na tela  
Exibindo: vídeo-aula ver clipes redimensionar
  
Parte A:  

e|--6/7--6/7---6/7---6/7---6/7---6/7---6/7---6/7---|  
B|-----------------------------------------------0-|  
G|-------------------------------------------------|  
D|-------------------------------------------------|  
A|-------------------------------------------------|  
E|-------------------------------------------------|  

e|-----0---7-----3--------7-----7-5-----------5-----5-7----|  
B|---0-------5-----5--------5-------8-7-5-7-8---7-8-----8--|  
G|-0-----------4-----4--------5-------------------------9--|  
D|---------------------------------------------------------|  
A|---------------------0-----------------------------------|  
E|-------0---------------------------7----------------0----|  

e|-7-------0---------------2--2-5-------2-------------0---|  
B|---8-------0-----0-------4--4---4-------0-----0-------0-|  
G|-----9-------0-----0-----2--2-----5-------2-----2-----0-|  
D|-------9-------------2--------------4-------1-----1-----|  
A|---------------2---------2--------------------------0---|  
E|--------------------------------------------------------|  

e|-----0---7-----3--------7------7-5-----------5-----5-7---|  
B|---0-------5-----5--------5--------8-7-5-7-8---7-8-----8-|  
G|-0-----------4-----4--------5--------------------------9-|  
D|---------------------------------------------------------|  
A|---------------------0-----------------------------------|  
E|------0------------------------------7---------------0---|  

e|--------------------14-12-10-----------7-5-4-------------|  
B|-12-10-9-10----9-10----------13-13-12--------7-5-7-8-----|  
G|------------11-------------------------------------------|  
D|---------------------------------------------------------|  
A|---------0-----------------------------------------------|  
E|--------------------------------0------------7-----------|  

e|-7-5-----0---|  
B|-----8-7---0-|  
G|-----------0-|  
D|-------------|  
A|-------------|  
E|---------0---|  


Parte B:  

e|---7---4---7---2---7---0---7---2---7---0---7-------7---|  
B|-0---0---0---0---0---0---0---0---0---0---0---0-2-0---0-|  
G|-------------------------------------------------------|  
D|-------------------------------------------------------|  
A|-------------------------------------------------------|  
E|-------4---------------0---------------0---------------|  

e|-----7-----7---5---4---7---2---7---0---7---2---7-------|  
B|-4-0--0-0-0--0---0---0---0---0---0---0---0---0--0-4-0--|  
G|-------------------------------------------------------|  
D|-------------------------------------------------------|  
A|-2-----------------------------------------2-----------|  
E|--------------7------------2---------------------------|  

e|-7--------7-------7----4----7---2---7---1-4--------9---------|  
B|---0-2-0----0-0-0---0----0----0---0---0----------9---9-------|  
G|----------------------------------------------10-------10----|  
D|--------------------------------------------11------------11-|  
A|-------------------------------------------------------------|  
E|-----0-----------------0-------------------------------------|  

e|-------------0-----2-2-----2-----2-4-4-4-3-4-7-5-4-------|  
B|------------2----2-------2-----4---5-5-------------7-4-0-|  
G|-----------2---2-------2-----2-----4-4-------------------|  
D|-4-5-4-2-------------------------------------------------|  
A|---------0-----------0-----------------------------------|  
E|-----------------------------------0---------------------|  

e|--------0-|  
B|--------0-|  
G|-2------1-|  
D|---4-2----|  
A|----------|  
E|-----0----|  

Parte C:  

e|-----0-4-----2-------0-------0-----0--------0-----------2-|  
B|---0-------5-----5-------5-4-----4------4-3-----3-----2---|  
G|-1-------4-----4---4---4-------4-----4--------4-----2-----|  
D|----------------------------------------------------------|  
A|----------------------------------------------------------|  
E|------0--------------0-------------0--------------2-------|  

e|-----2-2-----------------------2-------------2-----------0|  
B|---2----------5--------5-----4-------4-----2-----1-0---1--|  
G|-2---------2------2--------2-------2-----2-----2-----2----|  
D|---------4------4---4----4-------4-----4------------------|  
A|----------------------------------------------------------|  
E|------2---------------2--------------2------------0-------|  

e|-----0-4-----2-------0-------0-----0-------0-----------0-|  
B|---0-------5-----5-------5-4-----4-----4-3-----3-----2---|  
G|-1-------4-----4---4---4-------4-----4-------4-----2-----|  
D|---------------------------------------------------------|  
A|-------------------------------------------------0-------|  
E|------0--------------0-------------0---------------------|  

e|---------------------------------------------------------0|  
B|-2--------------4-2-0-----------2-0----------------------0|  
G|---4-2-------2--------2-1-0-1-2-----2-1-------1-4-2-1----1|  
D|-------4-3-4----------------------------4-3-4---------4-2-|  
A|----------------------------------------------------------|  
E|--------------------------------------------------------0-|  

  

top 5 | zequinha de abreu
top samba e pagode
Outras músicas do artista letras do(a) Zequinha de Abreu
Top cifras »Top artistas »
Petaxxon Comunicação Online
Cifras.com.br - Melhor e mais completo site de cifras e tablaturas do Brasil
Mais de 1 milhão de acordes de músicas cadastradas desde 2003
As informações contidas no nosso site são colaborações de seus usuários e podem conter erros, sendo assim, não nos responsabilizamos sobre nenhuma destas.
close
menos
mais
close
Cor dos acordes:

Cor da letra:

 

save
close
close
 
redimensionar