Cifras e Tablaturas
Zequinha de Abreu

Zequinha de Abreu

Tico-Tico No Fubá Tablatura Verificada

Cifras Cancelar Versão de Impressão
cifras

Zequinha de Abreu - Tico-Tico No Fubá

fixar na tela  
Exibindo: vídeo-aula ver clipes redimensionar
  
AFINAÇÃO: EADGBE 

Intro
  
-12--10-------------------------10--12--------------------------  
---------13--12--10--9--12--13----------------------------------  
----------------------------------------------------------------  
----------------------------------------------------------------  
----------------------------------------------------------------  
----------------------------------------0-----------------------  

TEMA A 
 

Parte 1
  
-0----------1p0--5-----0---0----1p0--4-----0---0--1p0-----------  
----4p0------------------4-------------------4------------------  
----------------------------------------------------------------  
----------------------------------------2---------0-------------  
---------0----------3---------2---------------------------------  
----------------------------------------------------------------  

-10p7---------0-------------------------------------------------  
-------9--------------------------------------------------------  
----------10-----7\---------------------------------------------  
---------------------5------------------------------------------  
---------------------5------------------------------------------  
----------------------------------------------------------------  

Parte 2  

-------------------10--8p7------------8--8p7---------7----------  
-10-------------10----------10-----0----------10------------7---  
-----12--11--10-----------------9-------------------------8-----  
-------------0------------------------------------------9-------  
--------------------------------0-------------------------------  
--------------------------------------------------7-------------  

-----8p7-------------4------------------------------------------  
-10-------10-------3--------------------------------------------  
-----------------4----------------------------------------------  
----------------------------------------------------------------  
----------------------------------------------------------------  
--------------0-------------------------------------------------  

Parte 3  

-0-----0-----1p0--5-----0---0----1p0--4-----0---0--1p0----------  
----4---------------------4-------------------4-----------------  
----------------------------------------------------------------  
-----------------------------------------2---------0------------  
----------0----------3---------2--------------------------------  
----------------------------------------------------------------  

-10p7---------0---------------------------10--8p7---------------  
-------9----------------10-------------10----------10-----10----  
----------10-----7\---------12--11--10-----------------9--------  
---------------------5--------------0---------------------------  
---------------------5------------------------------------------  
-0-----------------------------------------------------0--------  

-8--8p7--------7------7--12p10----------------------------------  
---------10---------9-----------13--12------10------------------  
------------------9-----------------------9---------------------  
----------------------------------------------------------------  
----------------------------------------0-----------------------  
-------------0--------------------------------------------------  

TEMA B 


Parte 5 
 
-------5--------------------------------------------------------  
-----5--------9------5--7------5------5--7------5------5--------  
---6--------6------6---------6------6---------6------6----------  
-7--------7------7---------7------7---------7------7------------  
------------------------0----------------0----------------------  
----------------------------------------------------------------  

-2----------2--5------4------4--2------0-----2--5------4--------  
------3---3---------3------3---------3-----3---------7----------  
----4---4---------4------4---------4-----4---------7------------  
----------------------------------------------------------------  
-2-------------2----------------2-------------------------------  
------------------------------------------------0---------------  

-----4--2------0--|-------5-------------------------------------  
---6--------1--2--|-----5--------9------5--7------5-------------  
-7--------2----2--|---6--------6------6---------6---------------  
--------1---------|-7--------7------7---------7-----------------  
---------------0--|-------0----------------0--------------------  
------------------|---------------------------------------------  

-2----------2----------------------------------0-----4-5-7------  
----5p2--------5p2-----0-----0--2--3--3--2--3-----7-------------  
---------3----------3-----3-------------------------------------  
--------------------------------------0-------------------------  
-----------------------2--------------------------6-------------  
-2----------2---------------------------------------------------  

-9------9--12--11--10--9----------------------------------------  
-----10-------------------12--10--9-----------------------------  
---9---------------------------------12--9--7--6----------------  
--------------------------------------------------9----7--------  
-0---------------------------------------------------0----------  
---------------------------0------------------------------------  


TEMA C 


Parte 6
  
-----------------0-2-3-4--5---------------------1-2-3-4--5------  
-0-------------1-------------6-0--------------3-----------------  
---2-1--0----0-------------------2-1-0------0-------------------  
-----------2--------------0---------------0---------------------  
--------3-------------------------------2----------------3------  
----------------------------------------------------------------  

-----8----8---8--7-7--7--5--5--5--7-7-7--7--5-5-5--3-3--3-------  
-4/----10----10-------8--6--6--6--8-8-8--8--6-6-6-------5-------  
-5/--------------------------------------0------0-------4-------  
-------------10-------9--------0--------------------------------  
--------------------------------------------------------3-------  
----------------------------------------------------------------  

-----------------0-2-3-4--5-------------------0-1-2-3-4--5------  
-0-------------1-------------6-0------------3---------------5---  
---2-1--0----0-------------------2-1------0-----------------4---  
-----------2--------------0-------------0-----------------------  
--------3----------------------------2-------------------3------  
----------------------------------------------------------------  

-----------------------------0------0-3-2-1-0-------------------  
-1-0-------------0--3-1-0-1-------1------------3-1-0------------  
-----3--2--1--2-----------------0--------------------2-0--------  
-----------------------------------------------0---------3-2-0--  
-----------------------------3---------------------------------3  
--------1-----------2-------------------------------------------  

TEMA A + Conclusão  

-0-----0-----1p0--5-----0---0----1p0--4-----0---0--1p0----------  
----4---------------------4-------------------4-----------------  
----------------------------------------------------------------  
-----------------------------------------2---------0------------  
----------0----------3---------2--------------------------------  
----------------------------------------------------------------  

-10p7---------0---------------------------10--8p7---------------  
-------9----------------10-------------10----------10-----10----  
----------10-----7\---------12--11--10-----------------9--------  
---------------------5--------------0---------------------------  
---------------------5------------------------------------------  
-------0-----------------------------------------------0--------  

-8--8p7--------7------7--12p10-----------------|----------------  
---------10---------9-----------13--12------10-|----------------  
------------------9-----------------------9----|----------------  
-----------------------------------------------|-2-1h2-3-2-0----  
----------------------------------------0------|--------------3-  
-------------0---------------------------------|----------------  

-----|-------0-2-3-4-5---4--7-----------------------------------  
-----|-1-3-4-------------3--5-----------------------------------  
-----|-------------------4--5-----------------------------------  
-----|----------------------------------------------------------  
-2-0-|----------------------0-----------------------------------  
-----|-------------------0--------------------------------------
  

top 5 | zequinha de abreu
top samba e pagode
Outras músicas do artista letras do(a) Zequinha de Abreu
Top cifras »Top artistas »
Petaxxon Comunicação Online
Cifras.com.br - Melhor e mais completo site de cifras e tablaturas do Brasil
Mais de 1 milhão de acordes de músicas cadastradas desde 2003
As informações contidas no nosso site são colaborações de seus usuários e podem conter erros, sendo assim, não nos responsabilizamos sobre nenhuma destas.
close
menos
mais
close
Cor dos acordes:

Cor da letra:

 

save
close
close
 
redimensionar