Cifras e Tablaturas
Hillsong Music Australia

Hillsong Music Australia

Follow the son

Cifras Cancelar Versão de Impressão Print

Hillsong Music Australia - Follow the son

Tom: E

  			Tab by Andrew Mahesan 

Guitar Riff 1 
E--x-x------x-x------x-x------2-2------0-0-0-0------x-x-x-x--| 
A--4-4------2-2------4-4------x-x------2-2-2-2------2-2-2-2--| 
D--x-x------x-x------x-x------4-4------2-2-2-2------4-4-4-4--| 
G--6-6------4-4------6-6------x-x------x-x-x-x------4-4-4-4--| 
B--x-x------x-x------x-x------x-x------x-x-x-x------x-x-x-x--| 
E--x-x------x-x------x-x------x-x------x-x-x-x------x-x-x-x--| 

VERSE 1+2 
Guitar Riff 1  
and picking inversions on 
            E 		B 
E-------x-----------------x--------| 
A-------7-----------------x--------| 
D-------9-----------------9--------| 
G-------9-----------------8--------| 
B-------9-----------------7---------| 
E-------7-----------------0---------| 

Pre-Chorus 
Rhythm Chords 
F#	E	B	C#m 
Electric Riff: 
8ths strum pattern on these chords 
E----x-------x-------x------x------| 
A----x-------x-------x------x------| 
D----9------10-------9-----11-----| 
G---11------10-------8------9------| 
B---10------10-------7------9------| 
E---(12)---(12)------x-----(12)----| 
(12) Optional- 

Chorus 
Rhythm 
E	A	B	C#m 
Electric Riff: 
8ths strum pattern on these chords 
E----x----x-----x-----x-----| 
A----x----x-----x-----x-----| 
D----x----x-----x-----x-----| 
G----9----4----11----11----| 
B---10----5----12----12-----| 
E----9----4----11----12-----| 


Chorus ending: 
C#m	B	A 
Electric 
E----x----x----x---| 
A----7----6----4---| 
D----x----x----x---| 
G----9----8----6---| 
B----x----x----x---| 
E----x----x----x---| 

Interlude 

Guitar 1 
E----------4--4--5--5----------------------7--7--7--7-| 
A----4--4--------------4--4--7--7--7--7---------------| 

Guitar 2 

B--------------------------------10--10--9--9--------9---------12--| 
E----12--12--11--11--12-12---------------------12--------11b-------| 

BRIDGE 

ANDREW MAHESAN
    	
fixar
fixar inscrever-se

enviado porenviado por: Andrewm
cifra enviadaCorrigida por: sem correções
logo top cifrasComente
ico música do artistaMúsicas deste artista
ico curtiuCurtiu?
ico destaqueDestaque
Petaxxon Comunicação Online

Cifras.com.br - Melhor e mais completo site de cifras e tablaturas do Brasil Mais de 1 milhão de acordes de músicas cadastradas desde 2003
As informações contidas no nosso site são colaborações de seus usuários e podem conter erros, sendo assim, não nos responsabilizamos sobre nenhuma destas.

close
menos
mais
close
Cor dos acordes:

Cor da letra:

close
Alinhar acordes a direita Alinhar acordes a esquerda Alinhar acordes em baixo Alinhar acordes no topo
close
  Mostrar todos os acordes Esconder acordes muito fáceis Esconder acordes fáceis Esconder acordes intermediários
redimensionar
glossário