Cifras e Tablaturas
Mamonas Assassinas

Mamonas Assassinas

Cabeça De Bagre II (guitarra)

Cifras Cancelar Versão de Impressão Print

Mamonas Assassinas - Cabeça De Bagre II (guitarra)

Tom: E5

  • 0:00 / 0:00
  			Intro: 
E|--------------------------------------------------------------- 
B|--------------------------------------------------------------- 
G|-------------0-----------------------------0----------------------- 
D|-----0-----2-------0-----0---0-----0-----2-------0----------------- 
A|---2---2-4-------2---2-4---4-----2---2-4-------2----7-7-7---------- 
E|-0-------------0---------------0-------------0-------------7-5-0--- 
solo: 
E|-------5-9-7-5--------------------9--12-9------9-12-9--8h9p8h9p8h9---- 
B|-----5---------7-4/5-4/5-------10-----------10------------------------ 
G|---6-------------------------9------------9--------------------------- 
D|-7-------------------------------------------------------------------- 
A|---------------------------------------------------------------------- 
E|---------------------------------------------------------------------- 


Intro: (E5) 

E5                           57 57 57 67 67 67 66 66   
Loucura, insensatez, estado inevitável  
E5                           57 57 57 67 67 67 66 66 
Embalagem de iogurte inviolável 
E5                         57 57 57 67 67 67 66 66     
Fome, miséria e incompreensão 
E5                     57 57 57 67 67 67  
O Brasil é "Treta" Campeão 
A5                          G5         A5                   G5 
Quando eu repeti a 5ª série e, tirava E, D, de vez enquando C 
A5                              G5 A5                     (E5)  
Mais de dez mil anos se passaram e: cê, cê, cererê, cê, cê 
E5                          57 57 57 67 67 67 66 66 
A polícia é justiça de um mundo cão 
E5                          57 57 57 67 67 67 66 66 
Mês de agosto sempre tem vacinação 
E5                          57 57 57 67 67 67 66 66 
Na política, o futuro de um país 
E5                          57 57 57 67 67 67 66 66 
Cala a boca, tira o dedo do meu nariz 
A5                          G5        A5                    G5 
Quando eu repeti a 5ª série e, tirava E, D, de vez enquando C 
A5                               G5  A5    
Mais de dez mil anos se passaram e: cê, cê, cererê, cê, cê 
A5                            (A5) 
Quando eu repeti a 5ª série e 
A5                                 (A5) 
Mais de dez mil anos se passaram e 
F#5 
Mamonas nha... nha... nha...} 5X 
      F5 
Assassinas 
A5                          G5        A5                    G5 
Quando eu repeti a 5ª série e, tirava E, D, de vez enquando C 
A5                               G5  A5    
Mais de dez mil anos se passaram e: cê, cê, cererê, cê, cê 
Final: (Bb5 A5) 3X 

    	

enviado porenviado por: VELHO
cifra enviadaCorrigida por: sem correções
afinação

Toque com outra afinação
Modifique a corda abaixo ou utilize um dos presets.

Dacorde
Aacorde
braço violão
Gacorde
Bacorde
logo top cifrasComente
ico música do artistaMúsicas deste artista
ico curtiuCurtiu?
ico destaqueDestaque
Petaxxon Comunicação Online

Cifras.com.br - Melhor e mais completo site de cifras e tablaturas do Brasil Mais de 1 milhão de acordes de músicas cadastradas desde 2003
As informações contidas no nosso site são colaborações de seus usuários e podem conter erros, sendo assim, não nos responsabilizamos sobre nenhuma destas.

close
menos
mais
close
Cor dos acordes:

Cor da letra:

close
Alinhar acordes a direita Alinhar acordes a esquerda Alinhar acordes em baixo Alinhar acordes no topo
close
  Mostrar todos os acordes Esconder acordes muito fáceis Esconder acordes fáceis Esconder acordes intermediários
redimensionar
glossário