Cifras e Tablaturas
Os Melhores

Os Melhores

Emoções Baratas

Cifras Cancelar Versão de Impressão Print

Os Melhores - Emoções Baratas

Tom: D

  			Introdução e  RIFF 1 

e|----------------------------------------------------------------------------- 
B|----------------------------------------------------------------------------- 
G|----------------------------------------------------------------------------- 
D|-----------7/----5-5-------7/---5-5------------------------------------------ 
A|-----------5/----3-3-------5/---3-3--5-5/------------------------------------ 
E|-------------------------------------3-3/------------------------------------ 


(RIFF 1 junto com a primeira parte) 

e|----------------------------------------------------------------------------- 
B|----------------------------------------------------------------------------- 
G|----------------------------------------------------------------------------- 
D|-----------7/----5-5-------7/---5-5------------------------------------------ 
A|-----------5/----3-3-------5/---3-3--5-5/------------------------------------ 
E|-------------------------------------3-3/------------------------------------ 

NOTAS( D  C   D   C   G   D ) 

Qualquer paixão me diverte, eu bem que te avisei  
Pensei que não fosse preciso explicar mais uma vez 
Tudo pra mim é aventura  


riff 2 (Com a segunda parte da letra)  NOTAS (F   G) 

e|----------------------------------------------------------------------------- 
B|----------------------------------------------------------------------------- 
G|----------------------------------------------------------------------------- 
D|--3-3-3-3-------5-5-5-5------------------------------------------------------ 
A|--3-3-3-3-------5-5-5-5------------------------------------------------------ 
E|--1-1-1-1-------3-3-3-3------------------------------------------------------ 


F 
Não sei fazer de outra maneira 

G  
Entre no carro e não faça perguntas  

Refrão  

e|----------------------------------------------------------------------------- 
B|----------------------------------------------------------------------------- 
G|----------------------------------------------------------------------------- 
D|--7~-------3~-------------5~-------------------------------------------------- 
A|--5~-------1~-----3~------3~-------------------------------------------------- 
E|------------------1~---------------------------------------------------------- 

D                       Bb 
Eu só quero ter com você 

F                              C 
Emoções baratas no banco de trás 


REPETIR RIFF 1 NOTAS( D  C   D   C   G   D ) 

e|----------------------------------------------------------------------------- 
B|----------------------------------------------------------------------------- 
G|----------------------------------------------------------------------------- 
D|-----------7/----5-5-------7/---5-5------------------------------------------ 
A|-----------5/----3-3-------5/---3-3--5-5/------------------------------------ 
E|-------------------------------------3-3/------------------------------------ 

Tudo comigo é para ontem se isto te assustar 
Não perca tempo comigo talvez não vale a pena  
Gostar não se aprende na escola 

e|----------------------------------------------------------------------------- 
B|----------------------------------------------------------------------------- 
G|----------------------------------------------------------------------------- 
D|--3-3-3-3-------5-5-5-5------------------------------------------------------ 
A|--3-3-3-3-------5-5-5-5------------------------------------------------------ 
E|--1-1-1-1-------3-3-3-3------------------------------------------------------ 

F                        
Sou eu quem faz o meu certo e o meu errado  

G 
Se vocÊ quiser assim entre no carro 

Refrão 

e|----------------------------------------------------------------------------- 
B|----------------------------------------------------------------------------- 
G|----------------------------------------------------------------------------- 
D|--7~-------3~-------------5~-------------------------------------------------- 
A|--5~-------1~-----3~------3~-------------------------------------------------- 
E|------------------1~---------------------------------------------------------- 

D                       Bb 
Eu só quero ter com você 

F                              C 
Emoções baratas no banco de trás 

e|----------------------------------------------------------------------------- 
B|----------------------------------------------------------------------------- 
G|----------------------------------------------------------------------------- 
D|-----------7/----5-5-------7/---5-5------------------------------------------ 
A|-----------5/----3-3-------5/---3-3--5-5/------------------------------------ 
E|-------------------------------------3-3/------------------------------------ 

NOTAS( D  C   D   C   G   D ) 

Qualquer paixão me diverte, eu bem que te avisei  
Pensei que não fosse preciso explicar mais uma vez 
Tudo pra mim é aventura  
Qualquer paixão me diverte  

Refrão 

e|----------------------------------------------------------------------------- 
B|----------------------------------------------------------------------------- 
G|----------------------------------------------------------------------------- 
D|--7~-------3~-------------5~-------------------------------------------------- 
A|--5~-------1~-----3~------3~-------------------------------------------------- 
E|------------------1~---------------------------------------------------------- 

D                       Bb 
Eu só quero ter com você 

F                              C 
Emoções baratas no banco de trás 

Final 

e|------------------------------------------------------------------------------ 
B|------------------------------------------------------------------------------ 
G|------------------------------------------------------------------------------ 
D|---7-7------5-5---7/---5-5---------------------------------------------------- 
A|---5-5------3-3---5/---3-3----5-5---5-5/-------------------------------------- 
E|------------------------------3-3---3-3/-------------------------------------- 
    	
fixar
fixar inscrever-se

enviado porenviado por: marcnagel
cifra enviadaCorrigida por: sem correções
afinação

Toque com outra afinação
Modifique a corda abaixo ou utilize um dos presets.

Dacorde
Aacorde
braço violão
Gacorde
Bacorde
logo top cifrasComente
ico música do artistaMúsicas deste artista
ico curtiuCurtiu?
ico destaqueDestaque
Petaxxon Comunicação Online

Cifras.com.br - Melhor e mais completo site de cifras e tablaturas do Brasil Mais de 1 milhão de acordes de músicas cadastradas desde 2003
As informações contidas no nosso site são colaborações de seus usuários e podem conter erros, sendo assim, não nos responsabilizamos sobre nenhuma destas.

close
menos
mais
close
Cor dos acordes:

Cor da letra:

close
Alinhar acordes a direita Alinhar acordes a esquerda Alinhar acordes em baixo Alinhar acordes no topo
close
  Mostrar todos os acordes Esconder acordes muito fáceis Esconder acordes fáceis Esconder acordes intermediários
redimensionar
glossário