Cifras e Tablaturas
The Cat Empire

The Cat Empire

All That Talking

Cifras Cancelar Versão de Impressão Print

The Cat Empire - All That Talking

Tom:

  			Australia 
Artist: Cat Empire 
Song: All That Talking (im almost 100% sure this is the name of the song) 
Tabbed by: Greg Dmochowski ([email protected]) 
 
 
Incredibly good song- got me hooked on the first listen.  
This is only the main riff. it plays throughout the entire song, with slight variations. 
Even the piano bit in the middle starts off with this and builds on it.  
I will send the rest in after i figure it all out.  
 
 
Now i just gotta figure me out who this band is and if i can get their cd here in canada! 
 
 
 
|-------------------------------|----------------------------------------| 
|-------------------------------|----------------------------------------| 
|---6-------4-----6------6------|---6-------4----6------7-7--------------| 
|---7-------6-----7------7------|---7-------6----7------6-6--------------| 
|-9----9-8-----9-----9-8---8-8--|-9----9-8-----9----9-8------------------| 
|-------------------------------|----------------------------------------| 
 
 
 
or you might find it easier to play it like this: 
 
 
|----------------------------|-------------------------------------------| 
|---2-----0-----2------0-----|---2------0----2------3-3------------------| 
|---2-----1-----2------1-----|---2------1----2------1-1------------------| 
|-4---4-3-----4----4-3---3-3-|-4----4-3----4----4-3----------------------| 
|----------------------------|-------------------------------------------| 
|----------------------------|-------------------------------------------| 

    	
fixar
fixar inscrever-se

enviado porenviado por: anônimo
cifra enviadaCorrigida por: sem correções
afinação

Toque com outra afinação
Modifique a corda abaixo ou utilize um dos presets.

Dacorde
Aacorde
braço violão
Gacorde
Bacorde
logo top cifrasComente
ico música do artistaMúsicas deste artista
ico curtiuCurtiu?
ico destaqueDestaque
Petaxxon Comunicação Online

Cifras.com.br - Melhor e mais completo site de cifras e tablaturas do Brasil Mais de 1 milhão de acordes de músicas cadastradas desde 2003
As informações contidas no nosso site são colaborações de seus usuários e podem conter erros, sendo assim, não nos responsabilizamos sobre nenhuma destas.

close
menos
mais
close
Cor dos acordes:

Cor da letra:

close
Alinhar acordes a direita Alinhar acordes a esquerda Alinhar acordes em baixo Alinhar acordes no topo
close
  Mostrar todos os acordes Esconder acordes muito fáceis Esconder acordes fáceis Esconder acordes intermediários
redimensionar
glossário