Cifras e Tablaturas
Soundgarden

Soundgarden

Taree

Cifras Cancelar Versão de Impressão Print

Soundgarden - Taree

Tom: D

  			


Tuning: D A D G B E 


Intro/Riff:                                                        x2 
|-------|--------------------------------------------------------------| 
|-------|--------------------------------------------------------------| 
|-------|--------------------------------------------------------------| 
|--0-/--|--5--8---8-5--0-3-/5-5-0-3--8------------8-------3-----3------| 
|--0-/--|--5-----------0-3-/5-5-0-3------8/10\8-----8\5------5---------| 
|--0-/--|--5----5------0-3-/5-5-0-3----5--------5-------3----------0---| 


Verse: 
|------------------------------------------------------------------------| 
|------------------------------------------------------------------------| 
|------------------------------------------------------------------------|x4 
|--5--8---8-5--0-3-/5-5-0-12--15----------------15----------10----10-----| 
|--5-----------0-3-/5-5-0-12--------15/17\15-------15\12-------12--------| 
|--5----5------0-3-/5-5-0-12-----12----------12----------10-----------0--| 


Chorus: 
G1 
|------------------------------| 
|------------------------------| 
|------------------------------|x4 
|--5-5----5-8--10---10-10-8----| 
|--5-5----5-8--10---10-10-8----| 
|--5-5----5-8--10---10-10-8----| 


G2                                      Ending 1:            Ending 2: 
|----------------------------------------|--------------------|-----------------| 
|----------------------------------------|--------------------|-----------------| 
|----------------------------------------|--------------------|-----------------|x4 
|------8-----------10/12-12~-------------|-10/12-12~----------|-10/12~----10~---| 
|----------8/10---------------10h12-8~---|-----------10h12-8~-|-----------------| 
|---5----5------8----------------------8-|--------------------|-----------------| 


Both Guitars: 
|---------------------------------| 
|---------------------------------| 
|---------------------------3~----| 
|-------3b--------3b--------------| 
|---------------------------------| 
|---5---------5--------5-5--------| 


G1 plays Main/Intro riff 

G2 
|----------------------------| 
|--(13~)---------------------| 
|----------------(12~)-------| 
|----------------------------| 
|----------------------------| 
|----------------------------| 

G3 w/ tremolo effect 
|-----------------------------------------| 
|-----------------------------------------| 
|-----------------------------------------| 
|--5-----8----3---5-----8----3------3h5---| 
|--------------------------------5--------| 
|-----------------------------------------| 


Verse 

Chorus 


Bridge: 
|-----------------------------------------------| 
|-----------------------------------------------| 
|-----------------------8p5-5~------------------|x2 
|--------8p5-----5~--------------8\5-3~---3---/-| 
|------------8p5--------------------------------| 
|---5-5-----------------------------------------| 


Solo: w/wah         
|-----------------------------------------------------------------------------| 
|--------------------------------------------x----3---------------------------| 
|--3-5b--(5r-5r-5r-5r-5r)-3-5p3-5p3-------x-x-3h5---5b-5-3--5brp3-5p3~--------| 
|-----------------------------------5~----x------------------------------5~---| 
|-----------------------------------------------------------------------------| 
|-----------------------------------------------------------------------------| 
      *gradually release 


|----------------------------------------------------------------------| 
|---8br-6-5-6--x-6~---\---------pb3r------------------/--6~------------| 
|-------------------------------------3--5brbr~------------------------| 
|----------------------------------------------------------------------| 
|----------------------------------------------------------------------| 
|----------------------------------------------------------------------| 


Chorus 


Post Chorus:                                                            x2 
|-------------------------------------------------|------------------------| 
|-------------------------------------------------|------------------------| 
|---------------------------3~--------------------|------------------------| 
|-------3b--------3b----------------3b--------3b--|--7p5-5-------5p3-------| 
|-------------------------------------------------|--5---3-------3----3p1--| 
|---5---------5--------5-5------5---------5-------|--5---3-------3----1----| 


Bridge 


both guitars end on: 
|---------| 
|---------| 
|---------| 
|--5-5----| 
|--5-5----| 
|--5-5----| 

 
    	

enviado porenviado por: tercmoraes
cifra enviadaCorrigida por: sem correções
logo top cifrasComente
ico música do artistaMúsicas deste artista
ico curtiuCurtiu?
ico destaqueDestaque
Petaxxon Comunicação Online

Cifras.com.br - Melhor e mais completo site de cifras e tablaturas do Brasil Mais de 1 milhão de acordes de músicas cadastradas desde 2003
As informações contidas no nosso site são colaborações de seus usuários e podem conter erros, sendo assim, não nos responsabilizamos sobre nenhuma destas.

close
menos
mais
close
Cor dos acordes:

Cor da letra:

close
Alinhar acordes a direita Alinhar acordes a esquerda Alinhar acordes em baixo Alinhar acordes no topo
close
  Mostrar todos os acordes Esconder acordes muito fáceis Esconder acordes fáceis Esconder acordes intermediários
redimensionar
glossário