Cifras e Tablaturas
The Extraordinaires

The Extraordinaires

Ellis Island

Cifras Cancelar Versão de Impressão Print

The Extraordinaires - Ellis Island

Tom: C

Capotraste na 3ª casa
  • 0:00 / 0:00
  			
 



               C 
e|---------------------------0----------------| 
B|-----------------------1-------1-------1----| 
G|-------------------0---------------0-------0| 
D|-----------------2---------------2-------2--| 
A|-----0---2---3-----------3---3-------3------| 
E|-3-------------------3----------------------| 

   C 
e|---------------0----------------| 
B|---1-------1-------1-------1----| 
G|-------0---------------0-------0| 
D|-----2---------------2-------2--|2x 
A|-3-----------3---3-------3------| 
E|---------3----------------------| 

   G                               G7 
e|---------------3-------------------------------1----------------| 
B|-----------0-------0-------0---------------0-------0-------0----| 
G|-------0---------------0-------0-------0---------------0-------0| 
D|-----0---------------0-------0-------0---------------0-------0--| 
A|-0h2---------2---2-------2-------0h2---------2---2-------2------| 
E|---------3-------------------------------3----------------------| 

   C                               Am 
e|---------------0-------------------------------0----------------| 
B|-----------1-------1---------------1-------1-------1-------1----| 
G|-------0---------------0-------0-------2---------------2-------2| 
D|-----2---------------2-------0-------2---------------2-------2--| 
A|-2/3---------3---3-------0/2-----0-----------0---0-------0------| 
E|---------3-------------------------------0----------------------| 

  Fm7                               C 
e|---3---1---3---1---1---3---1---0---------------0----------------| 
B|-------------------------------------------1-------1-------1----| 
G|-----1-------1-------1-------1---------0---------------0-------0| 
D|-1-------1-------1-------1-----------2---------------2-------2--|4x 
A|---------------------------------2/3---------3---3-------3------| 
E|-----------------------------------------3----------------------| 
  
   C 
e|---------------0----------------| 
B|---1-------1-------1-------1----| 
G|-------0---------------0-------0| 
D|-----2---------------2-------2--| 
A|-3-----------3---3-------3------| 
E|---------3----------------------| 


 (Bass and angelic Chorus come in) 
e|---------------0----------------| 
B|---1-------1-------1-------1----| 
G|-------0---------------0-------0| 
D|-----2---------------2-------2--| 
A|-3-----------3---3-------3------| 
E|---------3----------------------| 

   G                               G7 
e|---------------3-------------------------------1----------------| 
B|-----------0-------0-------0---------------0-------0-------0----| 
G|-------0---------------0-------0-------0---------------0-------0| 
D|-----0---------------0-------0-------0---------------0-------0--| 
A|-0h2---------2---2-------2-------0h2---------2---2-------2------| 
E|---------3-------------------------------3----------------------| 

   C                                Am 
e|---------------0-------------------------------0----------------| 
B|-----------1-------1---------------1-------1-------1-------1----| 
G|-------0---------------0-------0-------2---------------2-------2| 
D|-----2---------------2-------0-------2---------------2-------2--| 
A|-2/3---------3---3-------0/2-----0-----------0---0-------0------| 
E|---------3-------------------------------0----------------------| 

  Fm7                               C 
e|---3---1---3---1---1---3---1---0---------------0----------------| 
B|-------------------------------------------1-------1-------1----| 
G|-----1-------1-------1-------1---------0---------------0-------0| 
D|-1-------1-------1-------1-----------2---------------2-------2--|4x 
A|---------------------------------2/3---------3---3-------3------| 
E|-----------------------------------------3----------------------| 

   Fm7                                                 C 
e|---3---1---3-----1-----1-----3-------1----------0------0--------| 
B|-------------------------------------------------------1--------| 
G|-----1--------1-----------1---------------1------------0--------| 
D|-1-------1----------1------------1---------------------2--------| 
A|-------------------------------------------------------3--------| 
E|-------------------------------------------------------3--------| 


   C                           G 
   Landing in Manhattan with a suitcase and a name 
         G7                                    C 
   I was pushed off Ellis Island and they were branded just the same 
           Am                        Fm7         Fm       C 
   Now the Industry is waiting for a swift and deliberate change 


Dm        Fm           C 
   With a note of introduction,  
Dm           Fm            C 
   two great men of high esteem 
Dm        Fm           C 
   One is busy with production 
Dm           Fm               C 
   The other trapped inside a dream 


e|-------8------------------------| 
B|-1/-/8-----8-----8--------------| 
G|-------------9-----------9------| 
D|-----------------10-------------| 
A|-------------------------10-----| 
E|--------------------------------| 


   C                                 G 
   Swimming up that stream of people earning their commute 
         G7                          C 
   I was almost swept away under the wave of tailored suits 
            Am                 
   Standing in the wizard's waiting room 
   Fm7         Fm          C 
   Awaiting in his waiting room 


Dm            Fm            C 
   A young machinist in the empire 
Dm         Fm           C 
   With a letter in his hand 
Dm         Fm              C 
   An opportunist with the invite 
Dm         Fm             C 
   Another pitfall in the sand 
   Dm             Fm                    
  (Ah da da da da da da da da da da) 


C C7 Gm Gmadd9 Gm Gm7 C7 Gm  
(Just play around with C and G minor chords as you see fit) 

G                   G7 
   If it's war they want 
                            C 
   We can bring it to their door 
G                            G7 
   And if it's blood they want 
                          C 
   Then they can have it all! 


Amadd9 Am C Amadd9 Am C Amadd9 Am C 

G G7 

    G7                                 C 
And though you may not understand, the humor is American (x4) 

Am  

Fm7 Fm C (4x) 

Fm7 Fm Fm G G7 


e|---------------------------0-------------------------------3-----------------| 
B|-----------------------1-------1-------1---------------0-------0-------0-----| 
G|-------------------0---------------0-------0-------0---------------0-------0-| 
D|-----------------2---------------2-------2-------0---------------0-------0---| 
A|-----0---2---3-----------3---3-------3-------0h2---------2---2-------2-------| 
E|-3-------------------3-------------------------------3-----------------------| 

e|-----------------0--------| 
B|------------1-------------| 
G|--------0-----------------| 
D|-----2--------------------| 
A|-2/3----------------------| 
E|--------------------------| 
    	

enviado porenviado por: VsWorld
cifra enviadaCorrigida por: sem correções
logo top cifrasComente
ico música do artistaMúsicas deste artista
ico curtiuCurtiu?
ico destaqueDestaque
Petaxxon Comunicação Online

Cifras.com.br - Melhor e mais completo site de cifras e tablaturas do Brasil Mais de 1 milhão de acordes de músicas cadastradas desde 2003
As informações contidas no nosso site são colaborações de seus usuários e podem conter erros, sendo assim, não nos responsabilizamos sobre nenhuma destas.

close
menos
mais
close
Cor dos acordes:

Cor da letra:

close
Alinhar acordes a direita Alinhar acordes a esquerda Alinhar acordes em baixo Alinhar acordes no topo
close
  Mostrar todos os acordes Esconder acordes muito fáceis Esconder acordes fáceis Esconder acordes intermediários
redimensionar
glossário