Cifras e Tablaturas
Titãs

Titãs

MarvinCifra de Viola Verificada

Cifras Cancelar Versão de Impressão Print

Titãs - Marvin

Tom: G

  			Intro: 
  G#/C 
E|--------------------0---------------------0--------| 
B|------------------0---------------------0----------| 
G|-----7---7-----7------------9---9-----9------------| 
D|-9-9---9---9-9----------9-9---9---9-9--------------| 
A|---------------------------------------------------| 
E|---------------------------------------------------| 
  Bm E9 (2x) 
E|----------------------------0-0--------------------| 
B|----------------------------0---0------------------| 
G|-2h3-------------2h3--------1-----1----------------| 
D|-----4-2-4-4---4-----4-2-4--2----------------------| 
A|----------------------------2----------------------| 
E|----------------------------0----------------------| 

E|----------------------------0----------------------| 
B|----------------------------0--------9-------------| 
G|-2h3-------------2h3--------1----------------------| 
D|-----4-2-4-4---4-----4-2-4--2---8h9----------------| 
A|----------------------------2----------------------| 
E|----------------------------0----------------------| 

E|---------------------------------------------------| 
B|---------------------------------------------------| 
G|---------------------------------------------------| 
D|---------------------------------------------------| 
A|-0h1-----------0h1---------------------------------| 
E|-----2-0-2-2-2-----2-0-2---------------------------| 


( F#  E ) (2x) 

Primeira Parte: 
F# 
  Meu pai não tinha educação 
E 
  Ainda me lembro, era um grande coração 
F# 
  Ganhava a vida com muito suor 
E 
  E mesmo assim não podia ser pior 
F# 
  Pouco dinheiro pra poder pagar 
E 
  Todas as contas e despesas do lar 

     Bm 
Mas Deus quis vê-lo no chão 
                  E 
Com as mãos levantadas pro céu 

Implorando perdão 
    Bm 
Chorei, meu pai disse: "Boa sorte", 
       E 
Com a mão no meu ombro 

Em seu leito de morte 

E disse 

Refrão: 
  B                    B7M/A# 
"Marvin, agora é só você 
                B7/A 
E não vai adiantar 
                 E/G#   G#/C C#m 
Chorar vai me fazer sofrer" 

(volta a segunda base da intro) 

( F#  E ) (2x) 

(Primeira Parte) 

F# 
  Três dias depois de morrer 
E 
  Meu pai, eu queria saber 
F# 
  Mas não botava nem um pé na escola 
E 
  Mamãe lembrava disso a toda hora 
F# 
  Todo dia antes do sol sair 
E 
  Eu trabalhava sem me distrair 

    Bm 
As vezes acho que não vai dar pé 
     E 
Eu queria fugir, mas onde eu estiver 
    Bm 
Eu sei muito bem o que ele quis dizer 
     E 
Meu pai, eu me lembro, não me deixa esquecer 

Ele disse 

Segundo Refrão: 
  B                      B7M/A# 
"Marvin, a vida é pra valer 
                 B7/A 
Eu fiz o meu melhor 
                    E/G#   G#/C  C#m 
E o seu destino eu sei de cor" 

(trecho declamado sobre a base do Refrão) 

E então um dia uma forte chuva veio 
E acabou com o trabalho de um ano inteiro 
E aos treze anos de idade eu sentia 
todo o peso do mundo em 
minhas costas 
Eu queria jogar mas perdi a aposta, 

(Primeira Parte) 

F# 
  Trabalhava feito um burro nos campos 
E 
  Só via carne se roubasse um frango 
F# 
  Meu pai cuidava de toda a família 
E 
  Sem perceber segui a mesma trilha 
F# 
  Toda noite minha mãe orava 
  E 
"Deus, era em nome da fome que eu roubava" 

    Bm 
Dez anos passaram, cresceram meus irmãos 
     E 
E os anjos levaram minha mãe pelas mãos 
    Bm 
Chorei, meu pai disse: "Boa sorte" 
       E 
Com a mão no meu ombro 

Em seu leito de morte 

Refrão: 
  B                      B7M/A# 
"Marvin, a vida é pra valer 
                 B7/A 
Eu fiz o meu melhor 
                    E/G#   G#/C  C#m 
E o seu destino eu sei de cor" 


    	
fixar
fixar inscrever-se

enviado porenviado por: anônimo
cifra enviadaCorrigida por: sem correções
logo top cifrasComente
ico música do artistaMúsicas deste artista
ico curtiuCurtiu?
ico destaqueDestaque
Petaxxon Comunicação Online

Cifras.com.br - Melhor e mais completo site de cifras e tablaturas do Brasil Mais de 1 milhão de acordes de músicas cadastradas desde 2003
As informações contidas no nosso site são colaborações de seus usuários e podem conter erros, sendo assim, não nos responsabilizamos sobre nenhuma destas.

close
menos
mais
close
Cor dos acordes:

Cor da letra:

close
Alinhar acordes a direita Alinhar acordes a esquerda Alinhar acordes em baixo Alinhar acordes no topo
close
  Mostrar todos os acordes Esconder acordes muito fáceis Esconder acordes fáceis Esconder acordes intermediários
redimensionar
glossário