Cifras e Tablaturas
Waldir Azevedo

Waldir Azevedo

Arrasta Pé

Compositor : (Waldir Azevedo)

Cifras Cancelar Versão de Impressão
cifras

Waldir Azevedo - Arrasta Pé

fixar na tela  
Exibindo: vídeo-aula ver clipes redimensionar
  
Parte A 

d|-----------------------------------------7-8-7---8-7-------7-10-| 
B|---------------------------------------8-------8---------7------| 
G|---0-2-3-2-0-3-2-------0-2-0---2-0---7-----------------7--------| 
D|-0-----------------0-4-------4----------------------------------| 

d|-8-7-10-8---------3-4-5-3-------------3-2-3-5-3-2-1-0---0---0-1-| 
B|----------------3---------4-3-6-5-4-----------------------2-----| 
G|--------------4-------------------------------------------------| 
D|------------5---------------------------------------------------| 

d|-0-3-2-1-0------------------------------------------------------| 
B|-----------1---------------1-3-1--------------------------------| 
G|-------------3-2-0-----2-3-------3-2-0--------------------------| 
D|-------------------4--------------------------------------------| 

Parte B: 

d|-0-12-0-10-0-8-0-7-0-12-0-10-0-8-0-7-0-10-0-8-0-7-0-5-0-10-0-8-----| 
B|-------------------------------------------------------------------| 
G|-------------------------------------------------------------------| 
D|-------------------------------------------------------------------| 

d|-0-7-0-5-0-12-0-10-0-8-0-7-0-12-0-10-0-8-0-7-0-10-0-8-0-7-0-5-0----| 
B|-------------------------------------------------------------------| 
G|-------------------------------------------------------------------| 
D|-------------------------------------------------------------------| 

d|-7-0-8-0-10-0-12-0-12-0-10-0-8-0-7-0-12-0-10-0-8-0-7-0-10-0-8-0----| 
B|-------------------------------------------------------------------| 
G|-------------------------------------------------------------------| 
D|-------------------------------------------------------------------| 

e|-7-0-5-0-10-0-8-0-7-0-5-0-12-0-10-0-8-0-7-0-12-0-10-0-8-0-7-0------| 
B|-------------------------------------------------------------------| 
G|-------------------------------------------------------------------| 
D|-------------------------------------------------------------------| 

d|-7-0-5-0-10-0-8-0-7-0-5-0-12-0-10-0-8-0-7-0-12-0-10-0-8-0-7-0------| 
B|-------------------------------------------------------------------| 
G|-------------------------------------------------------------------| 
D|-------------------------------------------------------------------| 

d|-10-0-8-0-7-0-5-5-5-5-5-5-5--0-2-3-4-4--2-2-4-4--2-2-4-4-2-2-2----| 
B|-----------------------------0-1-2-3-3--1-1-3-3--1-1-3-3-1-1-1----| 
G|------------------------------------------------------------------| 
D|------------------------------------------------------------------| 

d|-2--0-0-2-2--0-0-2-2-0-0-0-0--------------------------0-2-3-4----| 
B|-1--0-0-0-0--0-0-0-0-0-0-0-0--1-1-3-3--1-1-3-3-1-1-0--0-1-2-3----| 
G|------------------------------2-2-4-4--2-2-4-4-2-2-0-------------| 
D|-----------------------------------------------------------------| 

d|-10-10-10-10-9-9-9-9-7-7-7-7-5-5-5-5-9-9-9-9-7-7-7-7-5-5-5-5----| 
B|-5--5--5--5--5-5-5-5-5-5-5-5-3-3-3-3-3-3-3-3-3-3-3-3-3-3-3-3----| 
G|----------------------------------------------------------------| 
D|----------------------------------------------------------------| 

d|-4-4-4-4-2-2-2-2-0-0-0-0---------------0---2---3---4---2---2---| 
B|-1-1-1-1-1-1-1-1-0-0-0-0-1-1-1-1-0---0---1---2---3---1---1---3-| 
G|-------------------------2-2-2-2-0-----------------------------| 
D|---------------------------------------------------------------| 

d|-4---4---2---4---2---2---0---0---2---2---0---2---0---0---------| 
B|---3---1---3---1---1---0---0---1---1---0---1---0---0-----1---1-| 
G|-------------------------------------------------------2---2---| 
D|---------------------------------------------------------------| 

d|---------------------------0-2-3-4--10-10-10-10--9-9-9-9-7-7-7-7-| 
B|---3---3---1---3---1---0---0-1-2-3--5--5--5--5---5-5-5-5-5-5-5-5-| 
G|-4---4---2---4---2---0-------------------------------------------| 
D|-----------------------------------------------------------------| 

d|-5-5-5-5-9-9-9-9-7-7-7-7-5-5-5-5-4-4-4-4-2-2-2-2-0-0-0-0-4-4-4-4-5-| 
B|-3-3-3-3-3-3-3-3-3-3-3-3-3-3-3-3-1-1-1-1-1-1-1-1-0-0-0-0-1-1-1-1-3-| 
G|-------------------------------------------------------------------| 
D|-------------------------------------------------------------------| 
  

top 5 | waldir azevedo
top mpb
Outras músicas do artista letras do(a) Waldir Azevedo
Top cifras »Top artistas »
Petaxxon Comunicação Online
Cifras.com.br - Melhor e mais completo site de cifras e tablaturas do Brasil
Mais de 1 milhão de acordes de músicas cadastradas desde 2003
As informações contidas no nosso site são colaborações de seus usuários e podem conter erros, sendo assim, não nos responsabilizamos sobre nenhuma destas.
close
menos
mais
close
Cor dos acordes:

Cor da letra:

 

save
close
close
 
redimensionar