Cifras e Tablaturas
Bruno Mars

Bruno Mars

Treasure Tablatura de Baixo Verificada

Compositor : (Bruno Mars / Ari Levine / Philip / Phredley Brown)

Cifras Cancelar Versão de Impressão
cifras

Bruno Mars - Treasure

fixar na tela  
Exibindo: vídeo-aula ver clipes redimensionar

Tom:

G#m

  
Verse:  

G|-------------|-------------------------------5-5-----------|  
D|-------------|---6-------3-3---------5---------------1-----|  
A|-0h1-1-1-1-1-|---------------------------1-3-----1h3---3-1-|  
E|-------------|-4---4-3-1-----1-1-1/3---3-------------------|  


G|-----------------------------5-5-----------|  
D|---6-------3-3-------5---------------1-----|  
A|-------------------------1-3-----1h3---3-1-|  
E|-4---4-3-1-----1-1-3---3-------------------| (2x)  

G|-----------------------------------------------|  
D|---6-------3-3---------------------------------|  
A|----------------------------13-13-13-13-13-13--|  
E|-4---4-3-1-----1-1/6-6-6-6/--------------------|  

Chorus:  

G|-----------------------------5-5-----------|  
D|---6-------3-3-----------------------1-----|  
A|---------------------5---1-3-----1h3---3-1-|  
E|-4---4-3-1-----1-1-3---3-------------------| (2x)  

G|-------------------------------------------------------|  
D|---6-------3-3-----------------------------------------|  
A|------------------------------13-13-13-13-13-13-13-13--|  
E|-4---4-3-1-----1-1/6-6-6-6-6/--------------------------|  

End:  


G|---------------------------------|  
D|---------------------------------|  
A|------------\13-13-13-13-13-13\--|  
E|-1/6-6-6-6/----------------------|  

G|-----------------------------5-5-----------|  
D|---6-------3-3-----------------------1-----|  
A|---------------------5---1-3-----1h3---3-1-|  
E|-4---4-3-1-----1-1-3---3-------------------| (2x)  

G|--------------------------------------------------------------|  
D|---6-------3-3------------------------------------------------|  
A|----------------------------------13-13-13-13-13-13-13-13-13--|  
E|-4---4-3-1-----1-1/6-6-6-6-6-6-6/-----------------------------|  

G|-----------------------------5-5--------------|  
D|---6-------3-3-----------------------1--------|  
A|---------------------5---1-3-----1h3---3-1----|  
E|-4---4-3-1-----1-1-3---3--------------------4-| (2x)  

  

top 5 | bruno mars
top pop music
Outras músicas do artista letras do(a) Bruno Mars
Top cifras »Top artistas »
Petaxxon Comunicação Online
Cifras.com.br - Melhor e mais completo site de cifras e tablaturas do Brasil
Mais de 1 milhão de acordes de músicas cadastradas desde 2003
As informações contidas no nosso site são colaborações de seus usuários e podem conter erros, sendo assim, não nos responsabilizamos sobre nenhuma destas.
close
menos
mais
close
Cor dos acordes:

Cor da letra:

 

save
close
close
 
redimensionar