Cifras e Tablaturas
Chic

Chic

Good times Tablatura de Baixo Verificada

Ano: 1979
Album : Dance, Dance, Dance: The Best of Chic
Compositor : (Bernard Edwards)

Cifras Cancelar Versão de Impressão
cifras

Chic - Good times

fixar na tela  
Exibindo: vídeo-aula ver clipes redimensionar

Tom:

E

  Intro:  

G|--------------------------------------------------------------|----|  
D|---------------------------2---------------4---5-4------------|----|  
A|---------------------2-4-5---0--0--0--0--0---0-----0--0-2-0---|----|  
E|-0--0--0--0--0-2-3-5----------------------------------------3-|-0--|  
                                                            (2x)  

Verse:  

G|---------------------------------------------------------|----|  
D|---------------------------------------------------------|----|  
A|-------------5h7-------------------------------------5h7-|----|  
E|-0--0--0--0------0-0-0--0--0-3-0-5-5-5-5-0-5-5-5-0-5-----|-0--|  
                                                       (2x)  

G|----------------------------|  
D|----------------------------|  
A|----------------------------|  
E|-5-5-5-5-0-5-5-5-0-5-12\-0--|  

  

top 5 | chic
top funk
Outras músicas do artista letras do(a) Chic
Top cifras »Top artistas »
Petaxxon Comunicação Online
Cifras.com.br - Melhor e mais completo site de cifras e tablaturas do Brasil
Mais de 1 milhão de acordes de músicas cadastradas desde 2003
As informações contidas no nosso site são colaborações de seus usuários e podem conter erros, sendo assim, não nos responsabilizamos sobre nenhuma destas.
close
menos
mais
close
Cor dos acordes:

Cor da letra:

 

save
close
close
 
redimensionar