Cifras e Tablaturas
Chic

Chic

Le freak

Ano: 1978
Album : Dance, Dance, Dance: The Best of Chic

Cifras Cancelar Versão de Impressão
cifras

Chic - Le freak

fixar na tela  
Exibindo: vídeo-aula ver clipes redimensionar

Tom:

  Intro 

------------------------------------------------------------------- 
--------------------------------7---------------------------------- 
------------------------------------------------------------------- 
-3-5\---3-5---3-5\---3-5----0-5---0--3-4--------------------------- 



Estrofe 1 

------------------------------------------------------------------- 
------------------------------------------------------------------- 
------------3-3---------5-5--------3--3---------------------------- 
--5---0-3h5-----5--3-5-------0-3h5-------0-3----------------------- 



------------------------------------------------------------------- 
------------------------------------------------------------------- 
------------3-3---------5-5--------3--3---------------------------- 
--5---0-3h5-----5--3-5-------0-3h5-------0-3----------------------- 



------------------------------------------------------------------- 
------------------------------------------------------------------- 
------------3-3---------5-5--------3--3---------------------------- 
--5---0-3h5-----5--3-5-------0-3h5-------0-3----------------------- 



------------------------------------------------------------------- 
------------------------------------------------------------------- 
------------3-3---------5-5--------3--3---------------------------- 
--5---0-3h5-----5--3-5-------0-3h5-------0-3----------------------- 



------------------------------------------------------------------- 
------------------------------------------------------------------- 
------------3-3---------5-5--------3--3---------------------------- 
--5---0-3h5-----5--3-5-------0-3h5-------0-3----------------------- 



------------------------------------------------------------------- 
------------------------------------------------------------------- 
------------3-3---------5-5--------3--3---------------------------- 
--5---0-3h5-----5--3-5-------0-3h5-------0-3----------------------- 



------------------------------------------------------------------- 
------------------------------------------------------------------- 
------------3-3---------5-5--------3--3---------------------------- 
--5---0-3h5-----5--3-5-------0-3h5-------0-3----------------------- 



------------------------------------------------------------------- 
------------------------------------------------------------------- 
------------3-3---------5-5--------3--3---------------------------- 
--5---0-3h5-----5--3-5-------0-3h5-------0-3----------------------- 


refrão 



------------------------------------------------------------------- 
--------------------------------7---------------------------------- 
------------------------------------------------------------------- 
-3-5\---3-5---3-5\---3-5----0-5---0--3-4--------------------------- 



estrofe 2 



------------------------------------------------------------------- 
------------------------------------------------------------------- 
------------3-3---------5-5--------3--3---------------------------- 
--5---0-3h5-----5--3-5-------0-3h5-------0-3------------------------ 

------------------------------------------------------------------- 
------------------------------------------------------------------- 
------------3-3---------5-5--------3--3---------------------------- 
--5---0-3h5-----5--3-5-------0-3h5-------0-3----------------------- 

------------------------------------------------------------------- 
------------------------------------------------------------------- 
------------3-3---------5-5--------3--3---------------------------- 
--5---0-3h5-----5--3-5-------0-3h5-------0-3----------------------- 

---------------------------------5---------------------------------- 
-----------------------------5h7------------------------------------ 
------------3-3---------5-5----------------------------------------- 
--5---0-3h5-----5--3-5---------------0-3---------------------------- 


------------------------------------------------------------------- 
------------------------------------------------------------------- 
------------3-3---------5-5--------3--3---------------------------- 
--5---0-3h5-----5--3-5-------0-3h5-------0-3----------------------- 


------------------------------------------------------------------- 
------------------------------------------------------------------- 
------------3-3---------5-5--------3--3---------------------------- 
--5---0-3h5-----5--3-5-------0-3h5-------0-3----------------------- 


------------------------------------------------------------------- 
------------------------------------------------------------------- 
------------3-3---------5-5--------3--3---------------------------- 
--5---0-3h5-----5--3-5-------0-3h5-------0-3----------------------- 


------------------------------------------------------------------- 
------------------------------------------------------------------- 
------------3-3---------5-5--------3--3---------------------------- 
--5---0-3h5-----5--3-5-------0-3h5-------0-3----------------------- 


especial 


---5-5---5---5------5-5---5---5------5-5---5---5-----5-5---5---5------ 
-------7---7---7--------7---7---7-0------7---7---7-0-----7---7---7---- 
-0---------------0---------------------------------------------------- 
---------------------------------------------------------------------- 


---5-5---5---5------5-5---5---5------5-5---5---5-----5-5---5---5----- 
-------7---7---7--------7---7---7-0------7---7---7-0-----7---7---7--- 
-0---------------0--------------------------------------------------- 
--------------------------------------------------------------------- 



---5-5---5---5-----5-5---5---5------5-5---5---5-----5-5---5---5------ 
-------7---7-----------7---7----0-------7---7----0------7---7-------- 
-0--------------0---------------------------------------------------- 
--------------------------------------------------------------------- 


---5-5---5---5-----5-5---5---5------5-5---5---5-----5-5---5---5--- 
-------7---7-----------7---7----0-------7---7----0------7---7----- 
-0--------------0------------------------------------------------- 
------------------------------------------------------------------ 


---5-5---5---5------5-5---5---5------5-5---5---5-----5-5---5---5----- 
-------7---7---7--------7---7---7-0------7---7---7-0-----7---7---7--- 
-0---------------0--------------------------------------------------- 
--------------------------------------------------------------------- 


---5-5---5---5-----5-5---5---5-----5-5---5---5-----5-5---5---7/12---
-------7---7---7-------7---7---7-0-----7---7---7-0-----7---7-------- 
-0---------------0-------------------------------------------------- 
-------------------------------------------------------------------- 



---5-5---5---5-----5-5---5---5-----7-5---5---5-----7-5---5---5/13\--- 
-------7---7-----------7---7----0------7---7----0------7---7--------- 
-0--------------0---------------------------------------------------- 
--------------------------------------------------------------------- 



---5-5---5---5-----5-5---5---5-----7-5---5---5----------------------- 
-------7---7-----------7---7----0------7---7-------------7----------- 
-0--------------0---------------------------------------------------- 
-----------------------------------------------5/17\-0-5---0-3-4-5--- 
  

top 5 | chic
top funk
Outras músicas do artista letras do(a) Chic
Top cifras »Top artistas »
Petaxxon Comunicação Online
Cifras.com.br - Melhor e mais completo site de cifras e tablaturas do Brasil
Mais de 1 milhão de acordes de músicas cadastradas desde 2003
As informações contidas no nosso site são colaborações de seus usuários e podem conter erros, sendo assim, não nos responsabilizamos sobre nenhuma destas.
close
menos
mais
close
Cor dos acordes:

Cor da letra:

 

save
close
close
 
redimensionar