Cifras e Tablaturas
Dropkick Murphys

Dropkick Murphys

For Boston

Cifras Cancelar Versão de Impressão

Dropkick Murphys - For Boston

Tom:

  			

Band: Drop-kick Murphys 
Song 
Bassist: Ken Casey

Starts After Bagpipes Finish 
G ----------------------------------------------------------------------------------
A ----------------------------------------------------------------------------------
D -----6666------8888---------------------------------------------------------------
E 6666------6666--------------------------------------------------------------------

Here's some i tried earlier tell me what you think E-Mail [email protected]

G ---12--------16--12--------14--12--11--12----14--16--14--12--11--12--14--12--11--
A 12----12--12--------12--14----------------12-------------------------------14--12 
D ----------------------------------------------------------------------------------
E ----------------------------------------------------------------------------------

G --14--12--14--12--14--16--14---12-------14--12--14--12--14--16--14--12------------
A 12--------------------------12--12--12----------------------------12--12--12--14--
D ----------------------------------------------------------------------------------
E ----------------------------------------------------------------------------------

G 12--17--16--14--12--12--14--16--14--12--11--12------------------------------------
A ----------------------------------------------------------------------------------
D ----------------------------------------------------------------------------------
E ----------------------------------------------------------------------------------

    	
fixar
fixar inscrever-se

enviado porenviado por: anônimo
cifra enviadaCorrigida por: sem correções
logo top cifrasComente
ico música do artistaMúsicas deste artista
ico curtiuCurtiu?
ico destaqueDestaque
Petaxxon Comunicação Online

Cifras.com.br - Melhor e mais completo site de cifras e tablaturas do Brasil Mais de 1 milhão de acordes de músicas cadastradas desde 2003
As informações contidas no nosso site são colaborações de seus usuários e podem conter erros, sendo assim, não nos responsabilizamos sobre nenhuma destas.

close
menos
mais
close
Cor dos acordes:

Cor da letra:

close
Alinhar acordes a direita Alinhar acordes a esquerda Alinhar acordes em baixo Alinhar acordes no topo
close
  Mostrar todos os acordes Esconder acordes muito fáceis Esconder acordes fáceis Esconder acordes intermediários
redimensionar
glossário