Cifras e Tablaturas
Duran Duran

Duran Duran

Notorius

Compositor : (Simon Le Bon)

Cifras Cancelar Versão de Impressão
cifras

Duran Duran - Notorius

fixar na tela  
Exibindo: vídeo-aula ver clipes redimensionar

Tom:

  
Intro: 

G|------7--5--------7--5---5-------7--5-------7--5---5--| 
D|------------------------------------------------------| 
A|-3/5---------3/5-------x-----3/5--------3/5------x----| 
E|------------------------------------------------------| 
B|------------------------------------------------------| 

Part 1: 

G|-----------------------------------------------------| 
D|------5--3-------5--3---3-------5--3--------5--3---3-| 
A|-----------------------------------------------------| 
E|-1/3--------1/3-------x-----1/3--------1/3-------x---| 
B|-----------------------------------------------------| 

Chorus: 

G|------------------------------------------------------| 
D|-------------5-3------------------------5-3-----------| 
A|-----------------5--------------------------5---------| 
E|-5--5--5--5--------3--3--7-5--5--5--5---------3--3--7-| 
B|------------------------------------------------------| 

G|---------------------------------------------------------------| 
D|-------------5-3------------------------5-3-------5-3----------| 
A|-----------------5--------------------------5---------5--------| 
E|-5--5--5--5--------3--3--7-5--5--5--5---------3---------3--7---| 
B|-------------------------------------------------------------3-| 

Bridge: 

G|------| 
D|------| 
A|------| 
E|------| 
B|--3---| 


Parte 3: 

G|------7------------7-5---5-------7------------7-5----5-| 
D|-------------------------------------------------------| 
A|-3/5----------3/5-----------3/5-----------3/5----------| 
E|--------1--3-----------x------------1--3-----------x---| 
B|-------------------------------------------------------| 

G|------7-----------------| 
D|------------------------| 
A|-3/5----------3/5--5-5--| 
E|--------1--3------------| 
B|------------------------| 
  

top 5 | duran duran
top pop music
Outras músicas do artista letras do(a) Duran Duran
Top cifras »Top artistas »
Petaxxon Comunicação Online
Cifras.com.br - Melhor e mais completo site de cifras e tablaturas do Brasil
Mais de 1 milhão de acordes de músicas cadastradas desde 2003
As informações contidas no nosso site são colaborações de seus usuários e podem conter erros, sendo assim, não nos responsabilizamos sobre nenhuma destas.
close
menos
mais
close
Cor dos acordes:

Cor da letra:

 

save
close
close
 
redimensionar