Cifras e Tablaturas
Edguy

Edguy

Deadmaker

Cifras Cancelar Versão de Impressão Print

Edguy - Deadmaker

Tom:

  			Transcribed by: AndrÈ Baida from Brazil!! 
Email: [email protected] 
 
Hello (Ed)guys! Well, this is an easy song to play and  
it's very cool! One of the bests songs in the Kingdom 
Of Madness album! I hope you like it! Feel free to  
send me an email! Stay Heavy!  
AndrÈ. 
 
Intro. 
 
G--------------|---------------|-------------|-------------||-- 
D---------0h2--|--------0-0h2--|--------0h2--|------0-0h2--||-- 
A--2-----------|--2------------|--2----------|--2----------||-- 
E--------------|---------------|-------------|-------------||-- 
 
Riff 1.                
                                                                
G--------------||-- 
D----------0h2-||-- 
A--2-2-2-2-----||-- 
E--------------||-- 
                                                                               
Pre Vocals and Vocals. 
 
G-----------------------------------------------------------------||-- 
D-----------------------------------------------------------------||-- 
A-----------------------------------------------------------------||-- 
E--00-000-000-000-000-000-000-000-000-000-000-000-000-000-000-000-||-- 
                                                                               
Riff 2. 
 
G----------------------------------------------------------------||-- 
D----------------------------------------------------------------||-- 
A--2222222222222222222222222222222222222222222222222222222222222-||-- 
E----------------------------------------------------------------||-- 
                                                                               
Bridge. 
 
G------------------------------------------------------------------------- 
D------------------------------------------------------------------------- 
A--33333-33333-33333-33333-777777777777777777777-33333-33333-33333-33333-- 
E------------------------------------------------------------------------- 
                                                                           
G----------------||-- 
D----------------||-- 
A-222222222----5-||-- 
E------------3---||-- 
                                                                               
Chorus. 
 
G----------------------------------------------------------------------------- 
D----------------------------------------------------------------------------- 
A--7-7-7-7-7-7-7-7-7-7-7-7-7-7-7-7-7-7-7-7-7---------------------5-5-5-5-5-5-- 
E--------------------------------------------3-3-3-3-3-3-3-3-3-3-------------- 
                                                                               
G----------------||-- 
D----------------||-- 
A-5-5-5--3-3-5-5-||-- 
E----------------||-- 
                                                                               
Repeat. 
 
Pre Solo. 
 
G-------|-------|-------|-------|-- 
D-------|-------|-------|-------|-- 
A-------|-------|-------|-------|-- 
E--0----|--0----|--5----|--1----|-- 
                                                                               
Solo. 
 
G-------------------------------------------------|-- 
D-------------------------------------------------|-- 
A-------------------------------------------------|-- 
E--0--0--0--0--0--0--0--0--5--5--5--5--1--1--1--1-|-- 
                                                                        
Play this part twice.        
 
G------------------------------------------------------------------||-- 
D------------------------------------------------------------------||-- 
A------------------------------------------------------------------||-- 
E--0-0-0-0-0-0-0-0-0-0-0-0-0-0-0-0-5-5-5-5-5-5-5-5-1-1-1-1-1-1-1-1-||-- 
                                                                               
and then do this and repeat Chorus 
 
G------------------------||-- 
D------------------------||-- 
A--2-2-2-2-2-2-2-2-2---5-||-- 
E--------------------3---||-- 
                                                                               
End. 
    	
fixar
fixar inscrever-se

enviado porenviado por: eduardo_lyvio
cifra enviadaCorrigida por: sem correções
logo top cifrasComente
ico música do artistaMúsicas deste artista
ico curtiuCurtiu?
ico destaqueDestaque
Petaxxon Comunicação Online

Cifras.com.br - Melhor e mais completo site de cifras e tablaturas do Brasil Mais de 1 milhão de acordes de músicas cadastradas desde 2003
As informações contidas no nosso site são colaborações de seus usuários e podem conter erros, sendo assim, não nos responsabilizamos sobre nenhuma destas.

close
menos
mais
close
Cor dos acordes:

Cor da letra:

close
Alinhar acordes a direita Alinhar acordes a esquerda Alinhar acordes em baixo Alinhar acordes no topo
close
  Mostrar todos os acordes Esconder acordes muito fáceis Esconder acordes fáceis Esconder acordes intermediários
redimensionar
glossário