Cifras e Tablaturas
Edguy

Edguy

Save Us Now

Compositor : (Edguy)

Cifras Cancelar Versão de Impressão Print

Edguy - Save Us Now

Tom:

  			Transcribed by: AndrÈ Baida from BRAZIL! 
Email: [email protected] 
 
Hey there friends! This is my first Mandrake bass tab!! Hope that you enjoy it! 
Feel free to send me an email if you have some requests, comments and suggestions!! 
 
Stay Savage! 
AndrÈ 
 
Intro: 
 
G-------------------------------------------------------------------------- 
D-------------------------------------------------------------------------- 
A-------------------------4-4-4-4-4-4-4-4-4-4-4-4-0-0-0-0-0-0-0-0-0-0-0-0-- 
E-0-0-0-0-0-0-0-0-0-0-0-0-------------------------------------------------- 
                                                                               
				   2x then: 
G--------------------------||-------------------------------|-- 
D--------------------------||-------------------------------|-- 
A--2-2-2-2-2-2-2-2-2-2-2-2-||--0-0-0-0-0-0-0-0-0-0-0-0----0-|-- 
E--------------------------||-------------------------------|-- 
                                                                               
 
Vocals: 
 
G------------------------------------------------------------------||-- 
D------------------------------------------------------------------||-- 
A----------------------------------4-4-4-4-4-4-4-4-4-4-4-4-4-4-4-4-||-- 
E--0-0-0-0-0-0-0-0-0-0-0-0-0-0-0-0---------------------------------||-- 
                                                                               
Bridge 1: 
 
G----------------------------------------------------------------------------- 
D----------------------------------------------------------------------------- 
A--0-0-0-0-0-0-0-0-0-0-0-0-0-0-0-0---------------------------------0-0-0-0-0-- 
E----------------------------------2-2-2-2-2-2-2-2-2-2-2-2-2-2-2-2------------ 
                                                                               
G-----------------------------------------------|-- 
D-----------------------------------------------|-- 
A-0-0-0-0-0-0-0---------------------------------|-- 
E---------------4-4-4-4-4-4-4-4-5-5-5-5-7-7-7-7-|-- 
                                                                               
Bridge 2 
 
G----------------------------------------------------------------------------- 
D----------------------------------------------------------------------------- 
A-4-2-2-2-2-2-2-2-2-2---2-2-2-2-4-4-4-4-4-4-4-4-4-4-4-4-4--2-0-0-0-0-0-0-0-0-- 
E----------------------------------------------------------------------------- 
                                                                               
Highspeeeeed..... 
 
G------------------------|-- 
D------------------------|-- 
A-------------2-2-2-2-4--|-- 
E-2-2-2-2-2-2------------|-- 
                                                                               
 
Chorus: Same as Intro, then: 
 
G---------------------------------------------------------------------------- 
D---------------------------------------------------------------------------- 
A-0-0-0-0-0-0-0-0-2-2-2-2-2-2-2-2-0-0-0-0-0-0-0-0-2-2-2-2-2-2-2-2-0-0-0-0-0-- 
E---------------------------------------------------------------------------- 
 
Bum, bum bunny B..... 
                                                                   
G---------|-- 
D---------|-- 
A--0-0--2-|-- 
E---------|-- 
                                                                               
Felix solo, and then: 
 
G----------------------------------------------------------||-- 
D----------------------------------------------------------||-- 
A--------------------------0-0-0-0-0-0-0-0-2-2-2-2-2-2-2-2-||-- 
E-0-0-0-0-0-0-0-0-0-0-0-0----------------------------------||-- 
                                                                               
G----------------------------------------------------------------------------- 
D----------------------------------------------------------------------------- 
A--0-0-0-0-0-0-0-0-0-0-0-0-0-0-0-0---------------------------------0-0-0-0-0-- 
E----------------------------------2-2-2-2-2-2-2-2-2-2-2-2-2-2-2-2------------ 
                                                                               
G-----------------------------------------------|-- 
D-----------------------------------------------|-- 
A-0-0-0-0-0-0-0---------------------------------|-- 
E---------------4-4-4-4-4-4-4-4-5-5-5-5-7-7-7-7-|-- 
 
 
G----------------------------------------------------------------------------- 
D----------------------------------------------------------------------------- 
A-4-2-2-2-2-2-2-2-2-2---2-2-2-2-4-4-4-4-4-4-4-4-4-4-4-4-4--2-0-0-0-0-0-0-0-0-- 
E----------------------------------------------------------------------------- 
                                                                               
G------------------------|-- 
D------------------------|-- 
A-------------2-2-2-2-4--|-- 
E-2-2-2-2-2-2------------|-- 
 
G---------------------------------------------------------------------------- 
D-6-4---4-------------------------------------------------------------------- 
A-----7---7-6-7-6-4-6-4------4-2-2-2-2-2-2-2-2-2--2-2-2-2-4-4-4-4-4-4-4-4-4-- 
E---------------------7------------------------------------------------------ 
                                                                               
G----------------------------------------------------------------------------- 
D----------------------------------------------------------------------------- 
A--4--2-0-0-0-0-0-0-0-0-0-0-0-0---------------2-2-2-2-4-4-4-4-4-4-4-4-4-4-4--- 
E-------------------------------2-2-2-2-2-2-2--------------------------------- 
                                                                               
Chorus, and then: 
 
"This is alien's drum bunny....." 
 
G------------------------------------ 
D------------------------------------ 
A-2-2-2-2-2-2-2-2-2-2-2-2-2-2-2-2-2-- 
E------------------------------------ 
                                                                               
Repeat Chorus, and then Bridge 2. 
End. 
    	
fixar
fixar inscrever-se

enviado porenviado por: eduardo_lyvio
cifra enviadaCorrigida por: sem correções
logo top cifrasComente
ico música do artistaMúsicas deste artista
ico curtiuCurtiu?
ico destaqueDestaque
Petaxxon Comunicação Online

Cifras.com.br - Melhor e mais completo site de cifras e tablaturas do Brasil Mais de 1 milhão de acordes de músicas cadastradas desde 2003
As informações contidas no nosso site são colaborações de seus usuários e podem conter erros, sendo assim, não nos responsabilizamos sobre nenhuma destas.

close
menos
mais
close
Cor dos acordes:

Cor da letra:

close
Alinhar acordes a direita Alinhar acordes a esquerda Alinhar acordes em baixo Alinhar acordes no topo
close
  Mostrar todos os acordes Esconder acordes muito fáceis Esconder acordes fáceis Esconder acordes intermediários
redimensionar
glossário