Cifras e Tablaturas
Edguy

Edguy

The Headless Game

Cifras Cancelar Versão de Impressão Print

Edguy - The Headless Game

Tom:

  			Transcribed by: Hern·n Reynoso. 
Email: [email protected] 
 
Note: You have to catch the rythm. Please, mail me if you find any mistake. 
 
 
Intro 
G:|---------------------------------|--------------------------------| 
D:|---------------------------------|--------------------------------| 
A:|---------------------------------|---------------222-2-2222-222---| 
E:|---000-0-0000-000-000-0-0000-000-|000-0-0000-000------------------| 
                                                                               
G:|---------------------------------|--------------------------------| 
D:|---------------------------------|--------------------------------| 
A:|---------------------------------|---------------222-2-2222-222---| 
E:|---000-0-0000-000-000-0-0000-000-|000-0-0000-000------------------| 
 
Verse 
            "Longing for silence..."         
G:|---------------------------------|--------------------------------| 
D:|---------------------------------|--------------------------------| 
A:|---------------------------------|---------------222-2-2222-222---| 
E:|---000-0-0000-000-000-0-0000-000-|000-0-0000-000------------------| 
 
            "Not a little patience..."  
G:|---------------------------------|--------------------------------| 
D:|---------------------------------|--------------------------------| 
A:|---------------------------------|---------------222-2-2222-222---| 
E:|---000-0-0000-000-000-0-0000-000-|000-0-0000-000------------------| 
 
Verse2 
     "The beast is rising...      ...those who are taking..." 
G:|---------------------------------|--------------------------------| 
D:|---------------------------------|555-5-5555-555------------------| 
A:|---777-7-7777-777-777-7-7777-777-|---------------555-5-5555-555---| 
E:|---------------------------------|--------------------------------| 
                                                                               
     "Alienation, a revelation       straight to the end..." 
G:|---------------------------------|--------------------------------| 
D:|---------------------------------|555-5-5555-555------------------| 
A:|---777-7-7777-777-777-7-7777-777-|---------------555-5-5555-555---| 
E:|---------------------------------|--------------------------------| 
 
Bridge 
       "...chill you feel...            ...it¥s for real."       "We don¥t follow!"  
G:|---------------------------------|----------------------------------| 
D:|---------------------------------|----------------------------------| 
A:|---------------------------------|---------------5--------------3---| 
E:|---5--------------3--------------|1---------------------------------| 
 
Chorus                                                                        
     "Fly! Riding away..." 
G:|-----------------------------------|-----------------------------------| 
D:|-----------------------------------|-----------------------------------| 
A:|---7777777733333333--------55555555|77777777333333335555555555555555---| 
E:|-------------------33333333--------|-----------------------------------| 
                                                                               
     "Fly! Riding away..."  
G:|-----------------------------------|-----------------------------| 
D:|-----------------------------------|-----------------------------| 
A:|---7777777733333333--------55555555|777777773333333355555555-5---| 
E:|-------------------33333333--------|-----------------------------| 
 
Little guitar solo 
G:|---------------------------------|--------------------------------| 
D:|---------------------------------|--------------------------------| 
A:|---------------------------------|---------------222-2-2222-222---| 
E:|---000-0-0000-000-000-0-0000-000-|000-0-0000-000------------------| 
                                                                               
G:|---------------------------------|--------------------------------| 
D:|---------------------------------|--------------------------------| 
A:|---------------------------------|---------------222-2-2222-222---| 
E:|---000-0-0000-000-000-0-0000-000-|000-0-0000-000------------------| 
 
Verse 
      "Cast out from Eden..." 
G:|---------------------------------|--------------------------------| 
D:|---------------------------------|--------------------------------| 
A:|---------------------------------|---------------22222222222222---| 
E:|--0000000000000000000000000000000|000000000000000-----------------| 
                                                                               
      "We¥re leading the treason..."  
G:|---------------------------------|--------------------------------| 
D:|---------------------------------|--------------------------------| 
A:|---------------------------------|---------------22222222222222---| 
E:|--0000000000000000000000000000000|000000000000000-----------------| 
 
Verse2 
     "I am danger, I¥m a... ...cause I don¥t give in..." 
G:|---------------------------------|--------------------------------| 
D:|---------------------------------|555555555555555-----------------| 
A:|---777777777777777777777777777777|---------------55555555555555---| 
E:|---------------------------------|--------------------------------| 
 
     "And not until she...    ...can come and explode..." 
G:|---------------------------------|--------------------------------| 
D:|---------------------------------|555555555555555-----------------| 
A:|---777777777777777777777777777777|---------------55555555555555---| 
E:|---------------------------------|--------------------------------| 
 
Bridge 
     "...blowing the frame...      ...your headless game."       "We don¥t follow!"   
G:|---------------------------------|----------------------------------| 
D:|---------------------------------|----------------------------------| 
A:|---------------------------------|---------------5--------------3---| 
E:|---5--------------3--------------|1---------------------------------| 
 
Chorus                                                                        
     "Fly! Riding away..."   
G:|-----------------------------------|-----------------------------------| 
D:|-----------------------------------|-----------------------------------| 
A:|---7777777733333333--------55555555|77777777333333335555555555555555---| 
E:|-------------------33333333--------|-----------------------------------| 
                                                                               
     "Fly! Riding away..."  
G:|-----------------------------------|-----------------------------------| 
D:|-----------------------------------|-----------------------------------| 
A:|---7777777733333333--------55555555|77777777333333335555555555555555---| 
E:|-------------------33333333--------|-----------------------------------| 
 
Solo                                                                          
G:|------------------------------------|------------------------------------| 
D:|------------------------------------|------------------------------------| 
A:|---8888----8888----8888----------5--|8888----8888------------------------| 
E:|-------5555----5555----333333338---7|----5555----555583333333300000000---| 
                                                                               
Solo2 
G:|------------------------------------|------------------------------------| 
D:|------------------------------------|------------------------------------| 
A:|---------------------------------5--|--------5555555577777777888888889---| 
E:|---33333333555555557777777788888---7|88888888----------------------------| 
                                                                               
Riff 
G:|---------------------------------|--------------------------------| 
D:|---------------------------------|--------------------------------| 
A:|---------------------------------|--------------------------------| 
E:|---0-----------------------------|0-------------------------------| 
                                                                               
G:|---------------------------------|--------------------------------| 
D:|---------------------------------|--------------------------------| 
A:|---------------------------------|--------------------------------| 
E:|---000000000000000000000000000000|00000000000000000000000000000---| 
 
            "Longing for silence..."                                                                   
G:|---------------------------------|--------------------------------| 
D:|---------------------------------|--------------------------------| 
A:|---------------------------------|--------------------------------| 
E:|---000000000000000000000000000000|00000000000000000000000000000---| 
 
            "Not a little patience..." 
G:|---------------------------------|--------------------------------| 
D:|---------------------------------|--------------------------------| 
A:|---------------------------------|--------------------------------| 
E:|---000000000000000000000000000000|00000000000000000000000000000---| 
 
Bridge 
       "...chill you feel..."          "...it¥s for real."       "We don¥t follow!" 
G:|---------------------------------|----------------------------------| 
D:|---------------------------------|----------------------------------| 
A:|---------------------------------|---------------5--------------3---| 
E:|---5--------------3--------------|1---------------------------------| 
 
Chorus                                                                        
     "Fly! Riding away..."  
G:|-----------------------------------|-----------------------------------| 
D:|-----------------------------------|-----------------------------------| 
A:|---7777777733333333--------55555555|77777777333333335555555555555555---| 
E:|-------------------33333333--------|-----------------------------------| 
                                                                               
     "Fly! Riding away..." 
G:|-----------------------------------|-----------------------------------| 
D:|-----------------------------------|-----------------------------------| 
A:|---7777777733333333--------55555555|77777777333333335555555555555555---| 
E:|-------------------33333333--------|-----------------------------------| 
 
Repeat Chorus ¥till the end. 
 
End. 
    	
fixar
fixar inscrever-se

enviado porenviado por: eduardo_lyvio
cifra enviadaCorrigida por: sem correções
logo top cifrasComente
ico música do artistaMúsicas deste artista
ico curtiuCurtiu?
ico destaqueDestaque
Petaxxon Comunicação Online

Cifras.com.br - Melhor e mais completo site de cifras e tablaturas do Brasil Mais de 1 milhão de acordes de músicas cadastradas desde 2003
As informações contidas no nosso site são colaborações de seus usuários e podem conter erros, sendo assim, não nos responsabilizamos sobre nenhuma destas.

close
menos
mais
close
Cor dos acordes:

Cor da letra:

close
Alinhar acordes a direita Alinhar acordes a esquerda Alinhar acordes em baixo Alinhar acordes no topo
close
  Mostrar todos os acordes Esconder acordes muito fáceis Esconder acordes fáceis Esconder acordes intermediários
redimensionar
glossário