Cifras e Tablaturas
Edguy

Edguy

The Pharaoh

Cifras Cancelar Versão de Impressão Print

Edguy - The Pharaoh

Tom:

  			Transcribed by: AndrÈ Baida from BRAZIL! 
Email: [email protected] 
 
Hey there you all! This is the longest track of mandrake!  
I didn't figure it out the fretless bass solo, so, sorry....hehehe 
Hope that you all enjoy the tab!! :) 
 
Stay savage! 
 
Tune: Half-Step Down 
Note: "*"s are used to represent the same note X times (listen to the song) 
 
 
Intro 
 
Gb----------------------------------------|---------------------|-- 
Db----------------------------------------|---------------------|-- 
Ab----------------------------------5*----|-------------------5-|-- 
Eb--1-1-1-1--1-1-1-1---0*---1--0*------1*-|-0*--1*--0*--1--3----|-- 
                                                                               
--->Bass Solo (Be my guest...hehee...) 
 
Vocals 2X 
 
Gb-----------------------------|--- 
Db-----------------------------|--- 
Ab-------5*-----------5*-------|--- 
Eb--0*------1*---0*--------1*--|--- 
                                                                               
 
Bridge 
 
Gb------------------------------------|--- 
Db------------------------------------|--- 
Ab------------------5*--1*--5*--0*--4-|--- 
Eb--5*--3*--5*--3*--------------------|--- 
                                                                               
Chorus 
 
Gb--------------------------|--------------------------|-- 
Db--------------------------|--------------------------|-- 
Ab--5*-------3*--1*--0*--4*-|--5*-------3*--1*--0*--4*-|-- 
Eb-------1*-----------------|-------1*-----------------|-- 
                                                                             
Gb----------------------------------|-- 
Db----------------------------------|-- 
Ab--5-5-3------0-0-1---5-5-3--0-0-1-|-- 
Eb----------------------------------|-- 
                                                                               
 
Repeat Vocals, Bridge and then: 
 
Gb--------------------------|----------------------------------|--- 
Db--------------------------|------------------0-3-2-----------|--- 
Ab--5*-------3*--1*--0*--4*-|--5*-------3*--1*-------5-3-0*-4*-|--- 
Eb-------1*-----------------|-------1*-------------------------|--- 
 
Gb----------------------------------|-- 
Db----------------------------------|-- 
Ab--5-5-3------0-0-1---5-5-3--0-0-1-|-- 
Eb----------------------------------|-- 
 
 
Interlude Accoustic guitar(no bass) and then: 
 
Gb----------------|-- 
Db----------------|-- 
Ab----5*-------3*-|-- 
Eb---------5*-----|-- 
 
AMAZING VOCALS! "Don't you see..." 
 
Gb-----------------||-- 
Db-----------------||-- 
Ab--5*------3*-----||-- 
Eb------5*------3*-||-- 
                                                                               
"You don't...." 
 
Gb------------------------------------|--- 
Db---------8-7-8-10-8-7---------------|--- 
Ab-----6/8----------------------------|--- 
Eb--6-------------------8-8-8-8-8-8-8-|--- 
 
Solo 1 
 
-----||-- 
-----||-- 
-----||-- 
--0*-||-- 
                                                                               
Solo 2 
 
Gb-------------------------------------------|----------------------------||----| 
Db-------------------------------------------|----------------------------||----| 
Ab--5--7-7-5-7-7-7-5-7-8--5-7-7-5-7-7-7-7--2-|--5-7-7-5-7-7-7-5-7-8--5----||-7*-| 
Eb-------------------------------------------|--------------------------5-||----| 
                                                                               
Vocals II 
 
Gb----------------------------------------------|--- 
Db-----------------3*---------------------3*----|--- 
Ab-5*--1*--3*--5*-----0*--5*--1*--3*--5*-----3*-|--- 
Eb----------------------------------------------|--- 
                                                                            
Gb----------------------------------------------|--- 
Db-----------------6*---------------------6*----|--- 
Ab-8*--4*--6*--8*-----3*--8*--4*--6*--8*-----6*-|--- 
Eb----------------------------------------------|--- 
                                                                               
Pre Chorus. 
 
Gb------------------|-------------------|------------|-------------------------- 
Db------------------|-------------------|------------|--9-10-9-7-9-7----9------- 
Ab--5*--1*-2*-3*-4*-|--5*--1*--2*-3*----|--5*---5--3-|---------------10---10-9-- 
Eb------------------|-------------------|------------|-------------------------- 
                                                                               
Gb-----------|-- 
Db-----------|-- 
Ab-10-9-7--4-|-- 
Eb-----------|-- 
                                                                               
Chorus 2X 
 
Gb--------------------------|--------------------------|-- 
Db--------------------------|--------------------------|-- 
Ab--5*-------3*--1*--0*--4*-|--5*-------3*--1*--0*--4*-|-- 
Eb-------1*-----------------|-------1*-----------------|-- 
 
and then: 
 
Gb----------------------------------|-----|-- 
Db----------------------------------|-----|-- 
Ab--5-5-3------0-0-1---5-5-3--0-0-1-|--5--|-- 
Eb----------------------------------|-----|-- 
 
End. 
    	
fixar
fixar inscrever-se

enviado porenviado por: eduardo_lyvio
cifra enviadaCorrigida por: sem correções
logo top cifrasComente
ico música do artistaMúsicas deste artista
ico curtiuCurtiu?
ico destaqueDestaque
Petaxxon Comunicação Online

Cifras.com.br - Melhor e mais completo site de cifras e tablaturas do Brasil Mais de 1 milhão de acordes de músicas cadastradas desde 2003
As informações contidas no nosso site são colaborações de seus usuários e podem conter erros, sendo assim, não nos responsabilizamos sobre nenhuma destas.

close
menos
mais
close
Cor dos acordes:

Cor da letra:

close
Alinhar acordes a direita Alinhar acordes a esquerda Alinhar acordes em baixo Alinhar acordes no topo
close
  Mostrar todos os acordes Esconder acordes muito fáceis Esconder acordes fáceis Esconder acordes intermediários
redimensionar
glossário