Cifras e Tablaturas
Edguy

Edguy

The Savage Union

Compositor : (Edguy)

Cifras Cancelar Versão de Impressão Print

Edguy - The Savage Union

Tom:

  			Transcribed by: AndrÈ Baida from BRAZIL! 
Email: [email protected] 
 
Tune: Half-Step Down 
 
Note: "*"s are used to represent the same note X times (listen to the song) 
 
Intro 
 
Gb------|---------------------|------|------|--- 
 
Db------|---------------------|------|------|--- 
Ab------|---3--3---3-2-3-2----|------|--5*--|--- 
Eb--0---|------------------3--|--0---|------|--- 
                                                                      
Gb----------------------------|--- 
Db----------------------------|--- 
Ab--------5*---3*---------5*--|--- 
Eb---0*--------------0*-------|--- 
                                                                 
Riff I 
 
Gb--------------------------------------------------|------------------------|-- 
Db--------------------------------------------------|------------------------|-- 
Ab-------------5*------------------5-5-----5--7-7-5-|------------5*-3*-5*-7*-|-- 
Eb---0*---3*--------5*---3-2--0*--------0-----------|--0*--2--3*-------------|-- 
            
Vocals 
 
Gb----------------------||--- 
Db----------------------||--- 
Ab------5*------3*--0*--||--- 
Eb--0*------0*----------||--- 
                 
Bridge 
 
 
Gb------------|--- 
Db------------|--- 
Ab---3*---5*--|--- 
Eb------------|--- 
                                                                 
Chorus 
 
Gb------------------------------------|---------------------------|----------|-- 
Db------------------------------------|---------------------------|----------|-- 
Ab-------5*--3*-------3*------3*--5*--|------5*--3*------2*---0*--|--3*--5*--|-- 
Eb---0*----------3*-------0*----------|--0*----------3*-----------|----------|-- 
            
Repeat Riff I, Vocals, Bridge, Chorus and then: 
 
Solo 
 
Gb-------------------|--------------------------------|--- 
Db-------------------|--------------------------------|--- 
Ab---------------5*--|------3*-------5*-------3*--5*--|--- 
Eb---5*--4*--3*------|--1*------3*--------1*----------|--- 
                                                                       
Chorus II 
 
Gb-------|--------------------|--------------------------|--- 
Db-------|--------------------|--------------------------|--- 
Ab-------|---3*-------3*--5*--|------5*--3*------2*--0*--|--- 
Eb---0---|-------0*-----------|--0*----------3*----------|--- 
                  
Repeat Chorus till fade out. 
End. 
    	
fixar
fixar inscrever-se

enviado porenviado por: eduardo_lyvio
cifra enviadaCorrigida por: sem correções
logo top cifrasComente
ico música do artistaMúsicas deste artista
ico curtiuCurtiu?
ico destaqueDestaque
Petaxxon Comunicação Online

Cifras.com.br - Melhor e mais completo site de cifras e tablaturas do Brasil Mais de 1 milhão de acordes de músicas cadastradas desde 2003
As informações contidas no nosso site são colaborações de seus usuários e podem conter erros, sendo assim, não nos responsabilizamos sobre nenhuma destas.

close
menos
mais
close
Cor dos acordes:

Cor da letra:

close
Alinhar acordes a direita Alinhar acordes a esquerda Alinhar acordes em baixo Alinhar acordes no topo
close
  Mostrar todos os acordes Esconder acordes muito fáceis Esconder acordes fáceis Esconder acordes intermediários
redimensionar
glossário