Cifras e Tablaturas
Eminem

Eminem

Stan (ver. 2)

Cifras Cancelar Versão de Impressão Print

Eminem - Stan (ver. 2)

Tom:

  • 0:00 / 0:00
  			



tabbed by:Psylent

This song is really easy to play if you listen to the song and get the rythym of it.
The song is in standard tuning (E,A,D,G)
Riff 1
G/-------------------------------------------------------------------------
D/-------------------------------------------------------------------------
A/-----7--7-9-----------7--7-9-----------7--7-9-----------7--7-8--8-7------
E/4--4---------7-6-4--4---------7-6-4--4---------7-6-4--4--------------76-4
You play that until you get to the part where Stan is driving and the car crashes then you play this little variation.

G----------------------------------------
D----------------------------------------
A-----7--7-8--8-7-------7--7-8--8-7------
E4--4--------------4--4--------------76-4
After that you play riff 1 till the end of the song.

    	

enviado porenviado por: anônimo
cifra enviadaCorrigida por: sem correções
logo top cifrasComente
ico música do artistaMúsicas deste artista
ico curtiuCurtiu?
ico destaqueDestaque
Petaxxon Comunicação Online

Cifras.com.br - Melhor e mais completo site de cifras e tablaturas do Brasil Mais de 1 milhão de acordes de músicas cadastradas desde 2003
As informações contidas no nosso site são colaborações de seus usuários e podem conter erros, sendo assim, não nos responsabilizamos sobre nenhuma destas.

close
menos
mais
close
Cor dos acordes:

Cor da letra:

close
Alinhar acordes a direita Alinhar acordes a esquerda Alinhar acordes em baixo Alinhar acordes no topo
close
  Mostrar todos os acordes Esconder acordes muito fáceis Esconder acordes fáceis Esconder acordes intermediários
redimensionar
glossário