Cifras e Tablaturas
Eminem

Eminem

Without Me (ver. 2)

Cifras Cancelar Versão de Impressão Print

Eminem - Without Me (ver. 2)

Tom:

  • 0:00 / 0:00
  			

G------------------------
D------------------------  Intro(two trailer park girls....)
A-1-2-1-5-5-5-5-5-5-1-2-1   
E------------------------   00:03-00:51

G---------------------
D---8-7-5---------3---
A-5------5--5-3-5--5--
E---------------------
                           Verses/chorus/outro
G---------------------     00:52-end of song
D---------------------
A-5-3-5-3-------------
E---------6-6-5-1-3---

it sounds right to me.it's a cool song too.so check it out

    	

enviado porenviado por: anônimo
cifra enviadaCorrigida por: sem correções
logo top cifrasComente
ico música do artistaMúsicas deste artista
ico curtiuCurtiu?
ico destaqueDestaque
Petaxxon Comunicação Online

Cifras.com.br - Melhor e mais completo site de cifras e tablaturas do Brasil Mais de 1 milhão de acordes de músicas cadastradas desde 2003
As informações contidas no nosso site são colaborações de seus usuários e podem conter erros, sendo assim, não nos responsabilizamos sobre nenhuma destas.

close
menos
mais
close
Cor dos acordes:

Cor da letra:

close
Alinhar acordes a direita Alinhar acordes a esquerda Alinhar acordes em baixo Alinhar acordes no topo
close
  Mostrar todos os acordes Esconder acordes muito fáceis Esconder acordes fáceis Esconder acordes intermediários
redimensionar
glossário