Cifras e Tablaturas
Eminem

Eminem

Without Me (ver. 3)

Cifras Cancelar Versão de Impressão Print

Eminem - Without Me (ver. 3)

Tom:

  • 0:00 / 0:00
  			

 
tab by [email protected]


G---------------------------------------------
d--8-7-5-----------3--------------------------
a-5-----5----5-3-5---5----5-3-5-3-1-1-0-------
e---------------------------------------1-3---

G---------------------------------------------
d--8-7-5-----------3--------------------------
a-5-----5----5-3-5---5----5-3-5-3-1-1-0-------
e---------------------------------------1-3---

G---------------------------------------------
d--8-7-5-----------3--------------------------
a-5-----5----5-3-5---5----5-3-5-3-1-1-0-------
e---------------------------------------1-3---

    	

enviado porenviado por: anônimo
cifra enviadaCorrigida por: sem correções
logo top cifrasComente
ico música do artistaMúsicas deste artista
ico curtiuCurtiu?
ico destaqueDestaque
Petaxxon Comunicação Online

Cifras.com.br - Melhor e mais completo site de cifras e tablaturas do Brasil Mais de 1 milhão de acordes de músicas cadastradas desde 2003
As informações contidas no nosso site são colaborações de seus usuários e podem conter erros, sendo assim, não nos responsabilizamos sobre nenhuma destas.

close
menos
mais
close
Cor dos acordes:

Cor da letra:

close
Alinhar acordes a direita Alinhar acordes a esquerda Alinhar acordes em baixo Alinhar acordes no topo
close
  Mostrar todos os acordes Esconder acordes muito fáceis Esconder acordes fáceis Esconder acordes intermediários
redimensionar
glossário