Cifras e Tablaturas
Green Day

Green Day

Jar

Cifras Cancelar Versão de Impressão

Green Day - Jar

Tom:

  			

MUSIC X TABS

 J.A.R.
 
ALBUM: International Superhits
BASSIST: Mike Dirnt
TUNING: Standard Concert Pitch
TABBER: Al ([email protected])

INTRO:
**This Intro will be played Easiest if you bar all the 4th frets
with your Index finger, and fret the 6th on the G with your
Ring Finger

G|-----6-------6-----6-------6-----6-------6-----6-------|
D|-4-4-------------------------4-4-----------------------|
A|---------4-4-----------4-4-----------4-4-----------4-4-|
E|-------4-------4-4---4-------------4-------4-4---4-----|

VERSE:
Part A
G|---------------------------------------------|  Play This Riff
D|-------------------2h4p2---------------------|  Twice before
A|-4----------------------h4-----------4-4-----|  The Singing Starts
E|---4-2-2-2-2-2-4-4---------2-2-2-2-2-----4-4-|

Part B
G|-------------------------------------------|
D|-------------------------------------------|
A|-4---------------------------------4-4-----|
E|---4-2-2-2-2-2-4-4-4-4-4-2-2-2-2-2-----4-4-|

***Play Part B when Billy starts singing, then alternate Part B and Part A
Until you get to the chorus.

CHORUS:
G|---------------------------------------------------------------------------|
D|---------------------------------------------------------------------------|
A|-----------------4-4-4-4-4-4-4-4-------------------------------4-4---------|
E|-2-2-2-2-2-2-2-2-----------------4-4-4-4-4-4-4-4-2-2-2-2-2-2-2-----2-2-2-2-|

**After the Chorus, you play the intro line again
Then back into the Part B and A alternating Verse Pattern.

BRIDGE:
G|---------------------------------|-----------------|
D|---------------------------------|-----------------|
A|-4-4-4-4-4-4-4-4-----------------|-4-4-4-4-4-4-4-4-|
E|-----------------4-4-4-4-4-4-4-4-|-----------------|

GUITAR SOLO:
**Play The Part A verse Riff under it

BRIDGE BEFORE OUTRO:
G|-------------|  Play This 
D|-------------|  As Many Times
A|-----4-4-----|  As needed before
E|-4-4-----4-4-|  Going into the outro

OUTRO:
**Play The Intro Riff
_______________________________________________________________________
Thanks For looking at my tab, I hope you like it,
Do me a Favor and rate it!

Thanks,
Al

    	
fixar
fixar inscrever-se

enviado porenviado por: anônimo
cifra enviadaCorrigida por: sem correções
logo top cifrasComente
ico música do artistaMúsicas deste artista
ico curtiuCurtiu?
ico destaqueDestaque
Petaxxon Comunicação Online

Cifras.com.br - Melhor e mais completo site de cifras e tablaturas do Brasil Mais de 1 milhão de acordes de músicas cadastradas desde 2003
As informações contidas no nosso site são colaborações de seus usuários e podem conter erros, sendo assim, não nos responsabilizamos sobre nenhuma destas.

close
menos
mais
close
Cor dos acordes:

Cor da letra:

close
Alinhar acordes a direita Alinhar acordes a esquerda Alinhar acordes em baixo Alinhar acordes no topo
close
  Mostrar todos os acordes Esconder acordes muito fáceis Esconder acordes fáceis Esconder acordes intermediários
redimensionar
glossário