Cifras e Tablaturas
Guster

Guster

Scars And Stitches

Cifras Cancelar Versão de Impressão

Guster - Scars And Stitches

Tom:

  			
After Guitar Intro 
G|------------------------------------------------------------| 
D|------------------------------------------------------------| 
A|------------------------------5-5--5-5-5-5------------------| 
E|--0-0--0-0-0-0--3-3--3-3-3-3----------------5-5-5--5-5-5-5--| 

Half of the verse is played like this, the other is just the same as intro 
G|----------------------------0-0---| 
D|-----------------------------2-2--| 
A|----------------0-0--0-2-3--------| 
E|--0-0--3-0-3-0--------------------| 

Chorus--octaves go nicely here 
G|-----------------------------| 
D|-----------------------------| 
A|---------4--4----------------| 
E|--0--0----------5--5---0--0--| 
    	
fixar
fixar inscrever-se

enviado porenviado por: hebealmeida
cifra enviadaCorrigida por: sem correções
logo top cifrasComente
ico música do artistaMúsicas deste artista
ico curtiuCurtiu?
ico destaqueDestaque
Petaxxon Comunicação Online

Cifras.com.br - Melhor e mais completo site de cifras e tablaturas do Brasil Mais de 1 milhão de acordes de músicas cadastradas desde 2003
As informações contidas no nosso site são colaborações de seus usuários e podem conter erros, sendo assim, não nos responsabilizamos sobre nenhuma destas.

close
menos
mais
close
Cor dos acordes:

Cor da letra:

close
Alinhar acordes a direita Alinhar acordes a esquerda Alinhar acordes em baixo Alinhar acordes no topo
close
  Mostrar todos os acordes Esconder acordes muito fáceis Esconder acordes fáceis Esconder acordes intermediários
redimensionar
glossário