Cifras e Tablaturas
In Extremo

In Extremo

Störtebeker

Cifras Cancelar Versão de Impressão Print

In Extremo - Störtebeker

Tom:

  			
Intro 
G|----------------|----------------|----------------|----------------|----------------|----------------| 
D|----------------|----------------|----------------|----------------|----------------|----------------| 
A|----------------|----------------|----------------|------------1---|1---1---1---1---|1---1---0---1---| 
E|----------------|----------------|--------0---0---|1---1---0-------|----------------|----------------| 
B|3---3---3---3---|3---3---3---3---|3---3-----------|----------------|----------------|----------------| 

G|----------------|----------------| 
D|----------------|----------------| 
A|0---0-----------|----------------| 2x 
E|--------3-3-3---|1---1---0-0-0---| 
B|----------------|----------------| 

Verse I 
G|----------------|----------------|----------------|----------------|----------------|----------------| 
D|----------------|----------------|----------------|----------------|----------------|----------------| 
A|----------------|----------------|----------------|------------1---|1---1---1---1---|1---1---0---1---| 
E|----------------|----------------|--------0---0---|1---1---0-------|----------------|----------------| 
B|3---3---3---3---|3---3---3---3---|3---3-----------|----------------|----------------|----------------| 

G|----------------|----------------| 
D|----------------|----------------| 
A|0---0-----------|----------------| 4x 
E|--------3-3-3---|1-1-1---0---0---| 
B|----------------|----------------| 

Pre-Chorus I 
G|----------------|----------------|----------------|----------------|----------------|----------------| 
D|----------------|----------------|----------------|----------------|----------------|----------------| 
A|1---1---1---1---|1---1---1---1---|0---0---0---0---|0---0---0-0-0---|1---1---1---1---|1---1---1---1-1-| 
E|----------------|----------------|----------------|----------------|----------------|----------------| 
B|----------------|----------------|----------------|----------------|----------------|----------------| 

G|----------------|----------------| 
D|----------------|----------------| 
A|3-3-3-3-3-3-3-3-|3~--------------| 
E|----------------|----------------| 
B|----------------|----------------| 

Chorus I 
G|----------------|----------------|----------------|----------------|----------------|----------------| 
D|----------------|----------------|----------------|----------------|----------------|----------------| 
A|----------------|----------------|----------------|----------------|3---3---3---3---|3---3---3---3---| 
E|----------------|------------0---|1---1---1---1---|1---1---1---1---|----------------|----------------| 
B|3---3---3---3---|3---3---3-------|----------------|----------------|----------------|----------------| 

G|----------------|----------------|----------------|----------------|----------------|----------------| 
D|----------------|----------------|----------------|----------------|----------------|----------------| 
A|1---1---0-0-0---|----------------|----------------|----------------|----------------|----------------| 
E|----------------|3-3-3---1-1-1---|----------------|------------0---|1---1---1---1---|1---1---1---1---| 
B|----------------|----------------|3---3---3---3---|3---3---3-------|----------------|----------------| 

G|----------------|----------------|----------------|----------------| 
D|----------------|----------------|----------------|----------------| 
A|----------------|----------------|1---1---1---1---|1-1-1-1-1-1-1-1-| 
E|----------------|----------------|----------------|----------------| 
B|1---1---1---1---|1---1---1-1-1---|----------------|----------------| 

Instrumental 
G|----------------|----------------|----------------|----------------|----------------|----------------| 
D|----------------|----------------|----------------|----------------|----------------|----------------| 
A|----------------|----------------|----------------|------------1---|1---1---1---1---|1---1---0---1---| 
E|----------------|----------------|--------0---0---|1---1---0-------|----------------|----------------| 
B|3---3---3---3---|3---3---3---3---|3---3-----------|----------------|----------------|----------------| 

G|----------------|----------------| 
D|----------------|----------------| 
A|0---0-----------|----------------| 
E|--------3-3-3---|1---1---0-0-0---| 
B|----------------|----------------| 

G|----------------|----------------|----------------|----------------|----------------|----------------| 
D|----------------|----------------|----------------|----------------|----------------|----------------| 
A|----------------|----------------|----------------|------------1---|1---1---1---1---|1---1---0---1---| 
E|----------------|----------------|--------0---0---|1---1---0-------|----------------|----------------| 
B|3---3---3---3---|3---3---3---3---|3---3-----------|----------------|----------------|----------------| 

G|----------------|----------------| 
D|----------------|----------------| 
A|0---0-----------|----------------| 
E|--------3-3-3---|1-1-1-1-0-0-0-0-| 
B|----------------|----------------| 

Verse II 
G|----------------|----------------|----------------|----------------|----------------|----------------| 
D|----------------|----------------|----------------|----------------|----------------|----------------| 
A|----------------|----------------|----------------|----------------|----------------|----------------| 
E|----------------|----------------|----------------|----------------|6---6---6---6---|6---6---6---6---| 
B|3---3---3---3---|3---3---3-3-3-3-|3---3---3---3---|3---3---3-3-3-3-|----------------|----------------| 

G|----------------|----------------| 
D|----------------|----------------| 
A|----------------|----------------| 
E|5---5---5---5---|5-5-5-5-5-5-5-5-| 
B|----------------|----------------| 

G|----------------|----------------|----------------|----------------|----------------|----------------| 
D|----------------|----------------|----------------|----------------|----------------|----------------| 
A|----------------|----------------|----------------|----------------|----------------|----------------| 
E|----------------|----------------|----------------|----------------|6---6---6---6---|6---6---6---6-6-| 
B|3---3---3---3---|3---3---3-3-3-3-|3---3---3---3---|3---3---3-3-3-3-|----------------|----------------| 

G|----------------|----------------| 
D|----------------|----------------| 
A|----------------|----------------| 
E|5-------5-------|5-------5-------| 
B|----------------|----------------| 

G|----------------|----------------|----------------|----------------|----------------|----------------| 
D|----------------|----------------|----------------|----------------|----------------|----------------| 
A|----------------|----------------|----------------|------------1---|1---1---1---1---|1---1---0---1---| 
E|----------------|----------------|--------0---0---|1---1---0-------|----------------|----------------| 
B|3---3---3---3---|3---3---3---3---|3---3-----------|----------------|----------------|----------------| 

G|----------------|----------------| 
D|----------------|----------------| 
A|0---0-----------|----------------| 2x 
E|--------3-3-3---|1-1-1---0---0---| 
B|----------------|----------------| 

Pre-Chorus II 
G|----------------|----------------|----------------|----------------|----------------|----------------| 
D|----------------|----------------|----------------|----------------|----------------|----------------| 
A|1---1---1---1---|1---1---1---1---|0---0---0---0---|0---0---0-0-0---|1---1---1---1---|1---1---1---1---| 
E|----------------|----------------|----------------|----------------|----------------|----------------| 
B|----------------|----------------|----------------|----------------|----------------|----------------| 

G|----------------|----------------| 
D|----------------|----------------| 
A|3-3-3-3-3-3-3-3-|3~--------------| 
E|----------------|----------------| 
B|----------------|----------------| 

Chorus II 
G|----------------|----------------|----------------|----------------|----------------|----------------| 
D|----------------|----------------|----------------|----------------|----------------|----------------| 
A|----------------|----------------|----------------|----------------|3---3---3---3---|3---3---3---3---| 
E|----------------|------------0---|1---1---1---1---|1---1---1---1---|----------------|----------------| 
B|3---3---3---3---|3---3---3-------|----------------|----------------|----------------|----------------| 

G|----------------|----------------|----------------|----------------|----------------|----------------| 
D|----------------|----------------|----------------|----------------|----------------|----------------| 
A|1---1---0-0-0---|----------------|----------------|----------------|----------------|----------------| 
E|----------------|3-3-3---1-1-1---|----------------|------------0---|1---1---1---1---|1---1---1---1---| 
B|----------------|----------------|3---3---3---3---|3---3---3-------|----------------|----------------| 

G|----------------|----------------|----------------|----------------| 
D|----------------|----------------|----------------|----------------| 
A|----------------|----------------|1---1---0---0---|1---1-1-1-1-1-1-| 
E|----------------|----------------|----------------|----------------| 
B|1---1---1---1---|1---1---1-1-1---|----------------|----------------| 

Rest 9 bars 

Bridge 
G|----------------|----------------|----------------|----------------| 
D|----------------|----------------|----------------|----------------| 
A|5---5-3-5---5-3-|5---5-3-5-3-2-3-|2-0-3-2-0-------|----------------| 2x 
E|----------------|----------------|----------3-1-3-|1-3-0-1---------| 
B|----------------|----------------|----------------|--------3---3---| 

G|----------------|----------------|----------------|----------------| 
D|----------------|----------------|----------------|----------------| 
A|3---3-2-3---3-2-|3---3-2-5-3-2-3-|2-0-3-2-0-------|----------------| 2x 
E|----------------|----------------|----------3-1-3-|1-3-0-1---------| 
B|----------------|----------------|----------------|--------3---3---| 

G|----------------|----------------|----------------|----------------| 
D|----------------|----------------|----------------|----------------| 
A|----------------|----------------|----------------|----------------| 
E|----------------|----------------|----------------|----------------| 
B|3.--------------|3.--------------|3.------3.------|3.--3.--3.--3.--| 

Chorus III 
G|----------------|----------------|----------------|----------------|----------------|----------------| 
D|----------------|----------------|----------------|----------------|----------------|----------------| 
A|----------------|----------------|----------------|----------------|3---3---3---3---|3---3---3---3---| 
E|----------------|------------0---|1---1---1---1---|1---1---1---1---|----------------|----------------| 
B|3---3---3---3---|3---3---3-------|----------------|----------------|----------------|----------------| 

G|----------------|----------------|----------------|----------------|----------------|----------------| 
D|----------------|----------------|----------------|----------------|----------------|----------------| 
A|1---1---0-0-0---|----------------|----------------|----------------|----------------|----------------| 
E|----------------|3-3-3---1-1-1---|----------------|------------0---|1---1---1---1---|1---1---1---1---| 
B|----------------|----------------|3---3---3---3---|3---3---3-------|----------------|----------------| 

G|----------------|----------------|----------------|----------------| 
D|----------------|----------------|----------------|----------------| 
A|----------------|----------------|1---1---1-1-1-1-|1---1---1-1-1-1-| 
E|----------------|----------------|----------------|----------------| 
B|1---1---1---1---|1---1---1-1-1---|----------------|----------------| 

G|----------------|----------------|----------------|----------------|----------------|----------------| 
D|----------------|----------------|----------------|----------------|----------------|----------------| 
A|----------------|----------------|----------------|----------------|3---3---3---3---|3---3---3---3---| 
E|----------------|------------0---|1---1---1---1---|1---1---1---1---|----------------|----------------| 
B|3---3---3---3---|3---3---3-------|----------------|----------------|----------------|----------------| 

G|----------------|----------------|----------------|----------------|----------------|----------------| 
D|----------------|----------------|----------------|----------------|----------------|----------------| 
A|1-1-1---0-0-0---|----------------|----------------|----------------|----------------|----------------| 
E|----------------|3-3-3---1-1-1---|----------------|------------0---|1---1---1---1---|1---1---1---1---| 
B|----------------|----------------|3---3---3---3---|3---3---3-------|----------------|----------------| 

G|----------------|----------------|----------------|----------------|----------------| 
D|----------------|----------------|----------------|----------------|----------------| 
A|----------------|----------------|1-------0-------|----------------|----------------| 
E|----------------|----------------|----------------|3-------1-------|----------------| 
B|1---1---1---1---|1---1---1-1-1---|----------------|----------------|--------3~------| 



************************************ 

| ~   Vibrato 
| .   Staccato 

************************************ 
    	
fixar
fixar inscrever-se

enviado porenviado por: carlluz
cifra enviadaCorrigida por: sem correções
logo top cifrasComente
ico música do artistaMúsicas deste artista
ico curtiuCurtiu?
ico destaqueDestaque
Petaxxon Comunicação Online

Cifras.com.br - Melhor e mais completo site de cifras e tablaturas do Brasil Mais de 1 milhão de acordes de músicas cadastradas desde 2003
As informações contidas no nosso site são colaborações de seus usuários e podem conter erros, sendo assim, não nos responsabilizamos sobre nenhuma destas.

close
menos
mais
close
Cor dos acordes:

Cor da letra:

close
Alinhar acordes a direita Alinhar acordes a esquerda Alinhar acordes em baixo Alinhar acordes no topo
close
  Mostrar todos os acordes Esconder acordes muito fáceis Esconder acordes fáceis Esconder acordes intermediários
redimensionar
glossário