Cifras e Tablaturas
Jackson Five

Jackson Five

Abc Tablatura de Baixo Verificada

Compositor : (The Corporation)

Cifras Cancelar Versão de Impressão
cifras

Jackson Five - Abc

fixar na tela  
Exibindo: vídeo-aula ver clipes redimensionar

Tom:

G#

  
Verso 1:  

G|--------------------------------------------------------------|  
D|--------------------------------------------------------------|  
A|-6-8\-----------6-8/------------6-8\-----------6-8\-----------|  
E|------4-4--4-4-------4-4-4-4-4-------4-4--4-4-------4-4-4-4-4-|  

G|-------------------------------------------------------------------|  
D|----------------6-6-6-----------------6-6-6------------------6-6-6-|  
A|-6-8\------------------6-8\------------------6-8/------------------|  
E|------4-4-4-4-4-------------4-4-4-4-4--------------4-4-4-4-4-------|  

Chorus:  


G|------------------------------------------|  
D|--------------------------3--6-5-3--------|  
A|-----3------3------3--4-6-----------4-6---|  
E|-4-6----4-6----4-6----------------------4-|  

G|-----5------------------5------------------5--------------|  
D|-6-8------------3-5-6-8------------3-5-6-8------------3-5-|  
A|--------3-4-6--------------3-4-6--------------3-4-6-------|  
E|----------------------------------------------------------|  

G|---------------|  
D|-6-5-3---------|  
A|--------4-6----|  
E|-------------4-|  

Bridge:  

G|------------------------------------------------------|  
D|-6-6--6-6-6--6-6-6--6-6--6-6--6-6--6-6-6--6-6-6--6-6--|  
A|------------------------------------------------------|  
E|------------------------------------------------------|  

verse 2:  

G|--------------------------|  
D|--------------------------|  
A|-----------6-8\-----------|  
E|-4-4--4-4--------4-4--4-4-|  

Chorus 2:  

G|---------------------------------------------------------|  
D|------------3-------------3-------------3--------------3-|  
A|-----3--4-6--------3--4-6--------3--4-6---------3--4-6---|  
E|-4-6-----------4-6-----------4-6------------4-6----------|  

G|-------------------------------------------|  
D|------------3-------------3---6-5-3--------|  
A|-----3--4-6--------3--4-6------------4-6---|  
E|-4-6-----------4-6-----------------------4-|  

End:  

G|-----5------------------5------------------5------------------------|  
D|-6-8------------3-5-6-8------------3-5-6-8------------3-5-6-5-3-----|  
A|--------3-4-6--------------3-4-6--------------3-4-6-------------4-6-|  
E|--------------------------------------------------------------------|  

G|------------------------------------------------------|  
D|-6-6--6-6-6--6-6-6--6-6--6-6--6-6--6-6-6--6-6-6--6-6--|  
A|------------------------------------------------------|  
E|------------------------------------------------------|  

  

top 5 | jackson five
top pop music
Outras músicas do artista letras do(a) Jackson Five
5.
Ben
Top cifras »Top artistas »
Petaxxon Comunicação Online
Cifras.com.br - Melhor e mais completo site de cifras e tablaturas do Brasil
Mais de 1 milhão de acordes de músicas cadastradas desde 2003
As informações contidas no nosso site são colaborações de seus usuários e podem conter erros, sendo assim, não nos responsabilizamos sobre nenhuma destas.
close
menos
mais
close
Cor dos acordes:

Cor da letra:

 

save
close
close
 
redimensionar