Cifras e Tablaturas
KC and The Sunshine Band

KC and The Sunshine Band

That's The Way (I Like It) Tablatura de Baixo Verificada

Compositor : (Casey / Richard Finch)

Cifras Cancelar Versão de Impressão
cifras

KC and The Sunshine Band - That's The Way (I Like It)

fixar na tela  
Exibindo: vídeo-aula ver clipes redimensionar

Tom:

  
Parte 1:  

G|---------------------------|  
D|---------------1-3-3-3-1---|  
A|-------3-----------------3-|  
E|-1-3-4---4-3-1-------------| (4x)  


Parte 2:  

G|-----------5h6---------|  
D|-----------------------|  
A|-3-2---1-------3---1---|  
E|-----3---3-------3---3-| (4x)  

  

top 5 | kc and the sunshine band
top pop music
Outras músicas do artista letras do(a) KC and The Sunshine Band
Top cifras »Top artistas »
Petaxxon Comunicação Online
Cifras.com.br - Melhor e mais completo site de cifras e tablaturas do Brasil
Mais de 1 milhão de acordes de músicas cadastradas desde 2003
As informações contidas no nosso site são colaborações de seus usuários e podem conter erros, sendo assim, não nos responsabilizamos sobre nenhuma destas.
close
menos
mais
close
Cor dos acordes:

Cor da letra:

 

save
close
close
 
redimensionar