Cifras e Tablaturas
Libido

Libido

Culpable

Cifras Cancelar Versão de Impressão

Libido - Culpable

Tom: G

  			Bueno esta es mi primera transcripcion, la cancion es muy buena! 
Una de mis favoritas, Libido es una gran banda peruana 
APOYEMOS AL ROCK NACIONAL! 
La cancion en si, se basa en tres tonos distintos, 
bueno yo lo he sacado en el primero y segundo, solo escuchenla y 
siganle el ritmo. 
Que fluya x)! 




E-3--3-3-3---0--0-0-0-------------3--3-3-3 
A-----------------------3--3-3-3---------- 
D----------------------------------------- 
G----------------------------------------- 



E--3--3-3-3--0--0-0-0------------3--3-3-5-3-- 
A----------------------3--3-3-3-------------- 
D-------------------------------------------- 
G-------------------------------------------- 


E------------------------------------------------- 
A-----------7-77777------------------------------- 
D-5-55555------------10-10101010--10/5-55555------ 
G------------------------------------------------- 







BUeno eso es toda la cancion espero que les halla gustado y 
cualqier cosa,corrinjanla, aunq esta bien y 
es bastante facil de sacar, solo escuchenla y veran! 
ALAMOZ! APOYEMOS AL ROCK NACIONAL 
    	
fixar
fixar inscrever-se

enviado porenviado por: mar-gobbo
cifra enviadaCorrigida por: sem correções
logo top cifrasComente
ico música do artistaMúsicas deste artista
ico curtiuCurtiu?
ico destaqueDestaque
Petaxxon Comunicação Online

Cifras.com.br - Melhor e mais completo site de cifras e tablaturas do Brasil Mais de 1 milhão de acordes de músicas cadastradas desde 2003
As informações contidas no nosso site são colaborações de seus usuários e podem conter erros, sendo assim, não nos responsabilizamos sobre nenhuma destas.

close
menos
mais
close
Cor dos acordes:

Cor da letra:

close
Alinhar acordes a direita Alinhar acordes a esquerda Alinhar acordes em baixo Alinhar acordes no topo
close
  Mostrar todos os acordes Esconder acordes muito fáceis Esconder acordes fáceis Esconder acordes intermediários
redimensionar
glossário