Cifras e Tablaturas
LS Jack

LS Jack

Carla

Cifras Cancelar Versão de Impressão Print

LS Jack - Carla

Tom: Bm

  			Como tocar: 
 
(Obs: Espere a introdução para começar a tocar:) 
Música: 
G|------------------------| 
D|------------------------| 
A|-2-2-------0-0--0-------| 
E|-------0-0--------------| 
 
Refrão: 
G|------------------------------------------------| 
D|-0-0--0-0---------------------------------------| 
A|---------------------------------------0-0--0-0-| 
E|--------------3-3--3-3-0-0--0-0-----------------| 
 
Leandro Calil Duarte 

    	

enviado porenviado por: Pantufa
cifra enviadaCorrigida por: sem correções
logo top cifrasComente
ico música do artistaMúsicas deste artista
ico curtiuCurtiu?
ico destaqueDestaque
Petaxxon Comunicação Online

Cifras.com.br - Melhor e mais completo site de cifras e tablaturas do Brasil Mais de 1 milhão de acordes de músicas cadastradas desde 2003
As informações contidas no nosso site são colaborações de seus usuários e podem conter erros, sendo assim, não nos responsabilizamos sobre nenhuma destas.

close
menos
mais
close
Cor dos acordes:

Cor da letra:

close
Alinhar acordes a direita Alinhar acordes a esquerda Alinhar acordes em baixo Alinhar acordes no topo
close
  Mostrar todos os acordes Esconder acordes muito fáceis Esconder acordes fáceis Esconder acordes intermediários
redimensionar
glossário