Cifras e Tablaturas
Lucybell

Lucybell

Esperanza

Cifras Cancelar Versão de Impressão

Lucybell - Esperanza

Tom:

  			Autor: Lucybell, Claudio Valenzuela 


INTRO 
Esta es la intro en vivo, con algunos arreglitos pero muy parecida a la versión en 
estudio, el slide con el que se entra al Mi suena muy bien. 

G|-------------------------------------------------------------------------------------------| 
D|--------2-2-------2---------2-2-----2--------------7-7-------7---------7-7-------7---------| 
A|--------------------2-----------------2-2------0-------0---0---7---0-------0---0---7-7-----| 
E|-12\0-3-----0-3-0-----3-0-3-----0-3-------3-3----8-------8-------8---8-------8---------8-8-| 

Bueno esa es la base del bajo, los versos son iguales pero se pueden hacer varios arreglitos, 
como siempre jeje, se puede jugar mucho con slides, bueno tendrian que escuchar mucho el tema 
en vivo, ya que tiene bastantes arreglos y es muy bueno para ir jugando con el bajo. 

Luego de un par de versos donde canta Claudio, hay un intermedio donde hay hartos arreglos de guitarra, 
donde se juega mucho con el instrumentos de 6 cuerdas, y como no se va a jugar con el bajo?, jeje  asi 
que aqui hay algunos arreglitos que suenan bastante bien en este intermedio. 

INTERMEDIO 
G|----------------------------------------------------------------------------------------| 
D|-----2-2-------2-----------2-2-----2-------------7-7-------7/9\-------7-7-----9--7------| 
A|-----------------2-------------------2-------0-------0---0--------0-------0--------7----| 
E|-0-3-----0-3-0-----3-3-0-3-----0-3------3-3----8-------8------------8-------8--------8--| 

Despues unos cuantos versos y viene otro intermedio en donde entra la bateria, y es un adelanto 
de lo que es el coro, bueno son dos acordes aqui esta. 

G|--------------------------------------------------------| 
D|--------------------------------------------------------| 
A|--------------------------------------------------------| 
E|-10-10-10-10-10-10-10-10-10-10-8-8-8-8-8-8-8-8-8/12\0---| 

El slide el final es para entrar al verso nuevamente, despues de unos cuantos versos viene el coro. 

CORO 
G|-------------------------------------------------------------------------------------------------| 
D|-------------------------------------------------------------------------------------------------| 
A|-------------------------------------------------------------------------------------------------| 
E|-10-10-10-10-10-10-10-10-10-10-8-8-8-8-8-8-8-8-8/15-15-15-15-15-15-15-15-15-5-5-5-5-5-5-5-5-5-5/-| 
   Esperanza... 

G|-----------------------------------------------------------------------------------------------------| 
D|--------------------------------------------------------17---------------17------------7------7------| 
A|-----------------------------------------------------------------------------------------------------| 
E|-10-10-10-10-10-10-10-10-10-10-8-8-8-8-8-8-8-8-8/151515---15-15-15-15-15---15-5-5-5-5-5--5-5-5--5-5--| 
   Esperanza... 

La parte que viene es muy dificil de tabera, al igual que el finla e la cancion, se escuhan hartos efectos de 
guitarra, los tipicos de claudio y el bajo va marcando en Mi con improvisaciones y arreglitos k salgan en el 
momento, en realidad va todo en la habilidad de cada uno, pero puede ser algo asi, ahi uno improvisa sobre la base. 

G|----------------------------------------------------------------------------------------------------| 
D|---------------------------------------5---------------------5--------------------5-----------5-----| 
A|---7-7-7-7-5-7-7-7-7-7-7-7-5-7-7-7-5-7-----7-5-7-7-5-7-7-5-7---7/10-9-5-7-7-7-5-7---7-7-7-5-7---7-7-| 
E|----------------------------------------------------------------------------------------------------| 

CORO 
G|-------------------------------------------------------------------------------------------------| 
D|-------------------------------------------------------------------------------------------------| 
A|-------------------------------------------------------------------------------------------------| 
E|-10-10-10-10-10-10-10-10-10-10-8-8-8-8-8-8-8-8-8/15-15-15-15-15-15-15-15-15-5-5-5-5-5-5-5-5-5-5/-| 
   Esperanza... 

G|------------------------------------------------------------------------------------------------------| 
D|--------------------------------------------------------17---------------17------------7------7-------| 
A|------------------------------------------------------------------------------------------------------| 
E|-10-10-10-10-10-10-10-10-10-10-8-8-8-8-8-8-8-8-8/151515---15-15-15-15-15---15-5-5-5-5-5--5-5-5--5-5/--| 
   Esperanza... 

G|---------------------------------------------------------------------------------------------------------------| 
D|--------------------------------------------------------17----------------------------------7------------------| 
A|---------------------------------------------------------------------------------------------------------------| 
E|-10-10-10-10-10-10-10-10-10-10-8-8-8-8-8-8-8-8-8/151515---15-15-15-15-15-15/17-17--5-5-5-5-5--5-5-5-77-5-7-5/--| 
   Esperanza... 

G|---------------------------------------------------------------------------------------------------------------| 
D|--------------------------------------------------------17----------------------------------7------------------| 
A|---------------------------------------------------------------------------------------------------------------| 
E|-10-10-10-10-10-10-10-10-10-10-8-8-8-8-8-8-8-8-8/151515---15-15-15-15-15-15/17-17--5-5-5-5-5--5-5-5-77-5-7-5/--| 

Ahora viene el Outro, que es mas k nada efectos, el Eduardo tambien le pone algunos efectos a su bajo, bueno y va en 
decadencia, es practicamente lo mismo que el intermedio anterior, aqui va una idea. 

G|-------------------------------------------------------------| 
D|---------------------------------------5/9-------------------| 
A|----------7-7-----------7-5-7-7-7-5-7------------------------| 
E|-0-0-0---------0-0-0-0---------------------0-0-0-0-----------| 

Es bastante dificil tabear esta parte, incluso cuando la escucho en vivo no la entiendo mucho, pero ahi ustedes improvisan algo, 
mas que nada son algunos efectos que van decayendo. 
Espero que les guste el tab, es una cancion muy entretnida de tokar y se le pueden hacer muchos arreglos, escuche varias versiones 
del Tour Esperanza y trate de tabear lo mejor que pude, un saludo a todos los fans de este gran grupo chileno!! 
---EdgE---
    	
fixar
fixar inscrever-se

enviado porenviado por: edsooliveira
cifra enviadaCorrigida por: sem correções
logo top cifrasComente
ico música do artistaMúsicas deste artista
ico curtiuCurtiu?
ico destaqueDestaque
Petaxxon Comunicação Online

Cifras.com.br - Melhor e mais completo site de cifras e tablaturas do Brasil Mais de 1 milhão de acordes de músicas cadastradas desde 2003
As informações contidas no nosso site são colaborações de seus usuários e podem conter erros, sendo assim, não nos responsabilizamos sobre nenhuma destas.

close
menos
mais
close
Cor dos acordes:

Cor da letra:

close
Alinhar acordes a direita Alinhar acordes a esquerda Alinhar acordes em baixo Alinhar acordes no topo
close
  Mostrar todos os acordes Esconder acordes muito fáceis Esconder acordes fáceis Esconder acordes intermediários
redimensionar
glossário