Cifras e Tablaturas
Lucybell

Lucybell

Viajar

Compositor : (Claudio Valenzuela)

Cifras Cancelar Versão de Impressão Print

Lucybell - Viajar

Tom:

  			IT’S PRACTICALLY ALL THE SONG, AND IF YOU REPEAT INDVIDUAL PARTS ALONG  
IT YOU’LL HAVE THE COMPLETE TABLATURE, ONLY UP SPEED AND REPETITION IN  
THE LAST TIME OF PART TWO. 
I’M MEXICAN AND I’D LIKE TO SHARE TABLATURES WITH YOU AND IF YOU ARE IN  
CHILE CONTACT ME, I WANT LUCYBELL RECORDINGS, THEN IF YOU HAVE QUESTIONS  
OR PETITIONS PLEASE SEND ME AN E-MAIL TO: [email protected] 



       part 1:starts at 18 sec. aprox.                                    
G---|----------------------------------------|-------------------------- 
D---|--------9/12----12----12----10----------|--------9/12----12-------- 
A---|--7--7----------------------------12----|--7--7-------------------- 
E---|----------------------------------------|-------------------------- 
                                                                         
                                                                         
G---------------------|--------------------------------|----------5----- 
D---12----10----------|-----------------7--7-----7-----|-----4h5-------- 
A---------------12----|--------5--5--5--------5-----5--|--3------------- 
E---------------------|--------------------------------|---------------- 
                                                                         
              3x                                                         
G---5--5------||-------------------------------------------------------- 
D---------5--*||-------------------------------------------------------- 
A------------*||-------------------------------------------------------- 
E-------------||-------------------------------------------------------- 
                                                                         
    part 2: enter w/chorus.                                              
G---|-----------|--------|--------|--------|--------|--------|-----|---- 
D---|-----------|--------|--------|--------|--------|--------|-----|---- 
A---|-----0--3--|-----3--|-----5--|-----5--|-----0--|--3--5--|--7--|---- 
E---|-----------|--4-----|--3-----|--2-----|--1-----|--------|-----|---- 
                                                                         
                                                                         
G------||--------------------------------------------------------------- 
D------||--------------------------------------------------------------- 
A------||--------------------------------------------------------------- 
E---0--||--------------------------------------------------------------- 
                                                                         

======================================================================== 
==                       TABLATURE EXPLANATION                        == 
======================================================================== 

----------                ----------                ----t--- 
----5h8--- Hammeron       ----(8)--- Ghost          ----6--- Tap 
----------                ---------- Note           -------- 
----5p8--- Pulloff        ----------                -------- 

----------                ----------                -----p-- 
----5/8--- Slide Up       -----x---- Dead           -----7-- Pop 
----------                ---------- Note           --s----- 
----5\8--- Slide Down     ----------                --5----- Slap  

----------                ||------|| Repeat         -------- 
----5~~~-- Vibrato        ||*----*||                ---5^--- Bend 
----------                ||*----*||                -------- 
----------                ||------||                -------- 

----------                ----------                -------- 
-4:------- Time           ----------                -------- 
-4:------- Signature      ----------                -------- 
----------                ----------                -------- 

Rhythm: 
  w = whole note            W = dotted whole 
  h = half note             H = dotted half 
  q = quarter note          Q = dotted quarter 
  e = eighth note           E = dotted eighth 
  s = sixteenth note        S = dotted sixteenth 
  t = 32nd note             T = dotted 32nd 
  x = 64th note             X = dotted 64th 
  ^ = triplet 

======================================================================== 
==            Created with a demo version of BUCKET O' TAB            == 
==              tablature creation software for Windows               == 
==                  For more info email [email protected]                   == 
========================================================================
    	
fixar
fixar inscrever-se

enviado porenviado por: edsooliveira
cifra enviadaCorrigida por: sem correções
logo top cifrasComente
ico música do artistaMúsicas deste artista
ico curtiuCurtiu?
ico destaqueDestaque
Petaxxon Comunicação Online

Cifras.com.br - Melhor e mais completo site de cifras e tablaturas do Brasil Mais de 1 milhão de acordes de músicas cadastradas desde 2003
As informações contidas no nosso site são colaborações de seus usuários e podem conter erros, sendo assim, não nos responsabilizamos sobre nenhuma destas.

close
menos
mais
close
Cor dos acordes:

Cor da letra:

close
Alinhar acordes a direita Alinhar acordes a esquerda Alinhar acordes em baixo Alinhar acordes no topo
close
  Mostrar todos os acordes Esconder acordes muito fáceis Esconder acordes fáceis Esconder acordes intermediários
redimensionar
glossário