Cifras e Tablaturas
Magic!

Magic!

Rude

Compositor : (Narsi Atweh)

Cifras Cancelar Versão de Impressão
cifras

Magic! - Rude

fixar na tela  
Exibindo: vídeo-aula ver clipes redimensionar

Tom:

  
Verse: 
G|-------------------------------------------------------------------|  
D|--------4-4-4/6--6----------6-6-6/8------------4-4-4/6--6----------|  
A|------4------------6---4--4------------------4------------6---4----|  
E|-10\2----------------4--------------x-4-0-2-----------------4------|  





G|-------------------------------------------------------------------|  
D|---6-6-6/8--6h8-6----------------------4--6h8-6-6/11-10-8\---------|  
A|-4---------------------------8-8\1--1/-----------------------------|  
E|------------------0-2--4h6-4---------------------------------------|  


refrão  


G|--------------------------------------------------------------------|  
D|-----4-x-4--6--------6-6-6-------------4---4--6----------6-6-6------|  
A|---4----------6----4-----------------4---4------x---4--4------------|  
E|-2--------------4-----------x-4-0--2--------------4-----------------|  




G|------------------------------------------------------------------|  
D|------------------------------------------------------------------|  
A|-3-4-3-1---------4---------4h6-4-4--6h8---------------------------|  
E|---------4--2-2----2--4-4---------------6-------------------------|  




G|-------------------------------------------------------------------|  
D|-------------------------------------------------------------------|  
A|-3-4-3-1---------4---------4h6-4-4--6h8----3-4-3-1-----------------|  
E|---------4--2-2----2--4-4---------------6----------4---------------|  

  

top 5 | magic!
top reggae
Outras músicas do artista letras do(a) Magic!
Top cifras »Top artistas »
Petaxxon Comunicação Online
Cifras.com.br - Melhor e mais completo site de cifras e tablaturas do Brasil
Mais de 1 milhão de acordes de músicas cadastradas desde 2003
As informações contidas no nosso site são colaborações de seus usuários e podem conter erros, sendo assim, não nos responsabilizamos sobre nenhuma destas.
close
menos
mais
close
Cor dos acordes:

Cor da letra:

 

save
close
close
 
redimensionar