Cifras e Tablaturas
Mano Negra

Mano Negra

Bring The Fire

Cifras Cancelar Versão de Impressão Print

Mano Negra - Bring The Fire

Tom:

  			Intro 

G|-------------------------------| 
D|-------------------------------| 
A|-7-------------7-7-----5-----5-| x4 
E|---0-0---0---0-----7-------7---| 


verse 1 

G|-------------------------------| 
D|-------------------------------| 
A|-7-------------7-7-----5-----5-| x8 
E|---0-0---0---0-----7-------7---| 


Chorus 

G|-------------------------------| 
D|-------------------------------| 
A|-7-------------7-7-----5-----5-| x4 
E|---0-0---0---0-----7-------7---| 


verse 2 

G|-------------------------------| 
D|-------------------------------| 
A|-7-------------7-7-----5-----5-| x4 
E|---0-0---0---0-----7-------7---| 


Chorus 

G|-------------------------------| 
D|-------------------------------| 
A|-7-------------7-7-----5-----5-| x4 
E|---0-0---0---0-----7-------7---| 


verse 3 

G|-------------------------------| 
D|-------------------------------| 
A|-7-------------7-7-----5-----5-| x4 
E|---0-0---0---0-----7-------7---| 

G|-------------------------------| 
D|-------------------------------| 
A|-7-----------------------------| 
E|-------------------------------| 


Chorus 

G|--------------------------------------------------------| 
D|--------------------------------------------------------| 
A|-6h7-7--6h7-7--6h7-7--b9--8--6h7-7--6h7-7--6h7-7--5--5--| x2 
E|--------------------------------------------------------| 


Guitar Solo 

G|--------------------------------------------------------| 
D|--------------------------------------------------------| 
A|-6h7-7--6h7-7--6h7-7--b9--8--6h7-7--6h7-7--6h7-7--5--5--| x4 
E|--------------------------------------------------------| 


Outro 

G|-------------------------------| 
D|-------------------------------| 
A|-7-------------7-7-----5-----5-| x31 
E|---0-0---0---0-----7-------7---| 

G|-------------------------------| 
D|-------------------------------| 
A|-7-------------7-7-----5-------| 
E|---0-0---0---0-----7-----------| 



************************************ 

| h  Hammer-on 
| b  Bend 

************************************ 
    	
fixar
fixar inscrever-se

enviado porenviado por: abelamin
cifra enviadaCorrigida por: sem correções
logo top cifrasComente
ico música do artistaMúsicas deste artista
ico curtiuCurtiu?
ico destaqueDestaque
Petaxxon Comunicação Online

Cifras.com.br - Melhor e mais completo site de cifras e tablaturas do Brasil Mais de 1 milhão de acordes de músicas cadastradas desde 2003
As informações contidas no nosso site são colaborações de seus usuários e podem conter erros, sendo assim, não nos responsabilizamos sobre nenhuma destas.

close
menos
mais
close
Cor dos acordes:

Cor da letra:

close
Alinhar acordes a direita Alinhar acordes a esquerda Alinhar acordes em baixo Alinhar acordes no topo
close
  Mostrar todos os acordes Esconder acordes muito fáceis Esconder acordes fáceis Esconder acordes intermediários
redimensionar
glossário