Cifras e Tablaturas
Mano Negra

Mano Negra

Dont Want You No More

Cifras Cancelar Versão de Impressão Print

Mano Negra - Dont Want You No More

Tom:

  			Intro 

G|-------------------------------------------| 
D|-------------------------------------------| 
A|--5---0---5---0--0-3-4-5---0---5---0--0-3--| x4 
E|-------------------------------------------| 


verse 1 

G|-------------------------------------------| 
D|-------------------------------------------| 
A|--5---0---5---0--0-3-4-5---0---5---0--0-3--| x6 
E|-------------------------------------------| 

G|---------------------------------| 
D|---------------------------------| 
A|-2-2-2-2-2-2-2-2-2-2-2-2-2-2-2-2-| 
E|---------------------------------| 

G|-------------------------------------------| 
D|-------------------------------------------| 
A|--5---0---5---0--0-3-4-5---0---5---0--0-3--| x6 
E|-------------------------------------------| 

G|------------------------------------------| 
D|------------------------------------------| 
A|-2-2-2-2-2-2-2-2-2-2-2-2-2-2-2-2-0-0-0-0--| 
E|------------------------------------------| 

G|-------------------------------------------| 
D|-------------------------------------------| 
A|--5---0---5---0--0-3-4-5---0---5---0--0-3--| 
E|-------------------------------------------| 

Chorus 

G|-------------------------------------------| 
D|-------------------------------------------| 
A|--5---0---5---0--0-3-4-5---0---5---0--0-3--| x4 
E|-------------------------------------------| 


verse 2 

G|-------------------------------------------| 
D|-------------------------------------------| 
A|--5---0---5---0--0-3-4-5---0---5---0--0-3--| x3 
E|-------------------------------------------| 

G|-------------------------------------------------------| 
D|-------------------------------------------------------| 
A|--5---0---5---0--0-3---5-4-3-2-1-0-----5-4-3-2-1-0-----| 
E|-----------------------------------4-3-------------4-3-| 

G|----------------------------------| 
D|----------------------------------| 
A|--5-4-3-2-1-0-----5-4-3-2-1-0-----| x3 
E|--------------4-3-------------4-3-| 


Chorus 

G|-------------------------------------------| 
D|-------------------------------------------| 
A|--5---0---5---0--0-3-4-5---0---5---0--0-3--| x4 
E|-------------------------------------------| 


Bridge 

G|------------------------------------------| 
D|------------------------------------------| 
A|-2-2-2-2-2-2-2-2-2-2-2-2-2-2-2-2-0-0-0-0--| 
E|------------------------------------------| 

G|-------------------------------------| 
D|------4--4-5--5-6--6-7---------------| 
A|-5--5---------------------0----5-----| 
E|-------------------------------------| 


Chorus 

G|-------------------------------------------| 
D|-------------------------------------------| 
A|--5---0---5---0--0-3-4-5---0---5---0--0-3--| x3 
E|-------------------------------------------| 

G|--------------------------------------| 
D|--------------------------------------| 
A|--5---0---5---0--0-3-4-5--5--5---5-5--| 
E|--------------------------------------| 
    	
fixar
fixar inscrever-se

enviado porenviado por: educastilho
cifra enviadaCorrigida por: sem correções
logo top cifrasComente
ico música do artistaMúsicas deste artista
ico curtiuCurtiu?
ico destaqueDestaque
Petaxxon Comunicação Online

Cifras.com.br - Melhor e mais completo site de cifras e tablaturas do Brasil Mais de 1 milhão de acordes de músicas cadastradas desde 2003
As informações contidas no nosso site são colaborações de seus usuários e podem conter erros, sendo assim, não nos responsabilizamos sobre nenhuma destas.

close
menos
mais
close
Cor dos acordes:

Cor da letra:

close
Alinhar acordes a direita Alinhar acordes a esquerda Alinhar acordes em baixo Alinhar acordes no topo
close
  Mostrar todos os acordes Esconder acordes muito fáceis Esconder acordes fáceis Esconder acordes intermediários
redimensionar
glossário