Cifras e Tablaturas
Mark Ronson

Mark Ronson

Uptown Funk

Cifras Cancelar Versão de Impressão
cifras

Mark Ronson - Uptown Funk

fixar na tela  
Exibindo: vídeo-aula ver clipes redimensionar

Tom:

Dm

  INTRO 

------------------------------------------------------------------- 
------------------------------------------------------------------- 
-------------------------------------------------------------------  
------------------------------------------------------------------- 
--3/15---15-15----------------------------------------------------- 

ESTROFE 1 

------------------------------------------------------------------- 
------------------------------------------------------------------- 
------------------------------------------------------------------- 
-------------1h3-1---1h3-1---------1h3-1---1h3-1------------------- 
-3/15\--3--3-------3-------1-3---3-------3-------1-3--------------- 



------------------------------------------------------------------- 
------------------------------------------------------------------- 
------------------------------------------------------------------- 
---1h3-1---1h3-1---------1h3-1------------------------------------- 
-3-------3-------1-3---3-------3-1-2-3----------------------------- 


BRIDGE 



------------------------------------------------------------------- 
------------------------------------------------------------------- 
------------------------------------------------------15----------- 
------------------------------------------------3/15-----15\------- 
-3--4--5--6--7--8--9--10--11--12--13--14-15\----------------------- 

REFRÃO 


------------------------------------------------------------------- 
------------------------------------------------------------------- 
-----------------------------------------5-5-5-5-5-5-5------------- 
------1h3-1---1h3-1---------1h3-1---1h3---------------------------- 
-3--3-------3-------1-3---3-------3-------------------------------- 





----------------------------------x-------------------------------- 
------------------------------x-x---------------------------------- 
------------------------------------3h5---------------5-5-5-5-5-5-- 
-------1h3-1---1h3-1------1/3-------------1h3-1---1h3-------------- 
-3---3-------3-------1-3\----------------3-------3----------------- 





------------------------------------------------------------------- 
------------------------------------------------------------------- 
-5/17-17-17-17-17-17---5-5-5-5-5-5---5/17-17-17-17-17-17----------- 
------------------------------------------------------------------- 
------------------------------------------------------------------- 



------------------------------------------------------------------- 
------------------------------------------------------------------- 
------------------------------------------------------------------- 
----------15------------------------------------------------------- 
--3/15--3/---15\3--3----------------------------------------------- 


ESTROFE 2 


------------------------------------------------------------------- 
------------------------------------------------------------------- 
------------------------------3-5---------------------------------- 
-----------1h3-1---1h3-1-------------1h3-1---1h3-1----------------- 
-3/15\3--3-------3-------1-3-------3-------3-------1-3------------- 





----------------------5h7------------------------------------------ 
----------------------------x-------------------------------------- 
--------------------------x---------------------------------------- 
---1h3-1---1h3-1----------------1h3-1------------------------------ 
-3-------3-------1-3----------3-------3-1-2-3---------------------- 


BRIDGE 


------------------------------------------------------------------- 
------------------------------------------------------------------- 
------------------------------------------------------15----------- 
------------------------------------------------3/15-----15\------- 
-3--4--5--6--7--8--9--10--11--12--13--14-15\----------------------- 


REFRÃO 2 


------------------------------------------------------------------- 
------------------------------------------------------------------- 
-----------------------------------------5-5-5-5-5-5--------------- 
------1h3-1---1h3-1---------1h3-1---1h3---------------------------- 
-3--3-------3-------1-3---3-------3-------------------------------- 





----------------------------------x-------------------------------- 
------------------------------x-x---------------------------------- 
------------------------------------3h5---------------5-5-5-5-5-5-- 
-------1h3-1---1h3-1------1/3-------------1h3-1---1h3-------------- 
-3---3-------3-------1-3----------------3-------3------------------ 





------------------------------------------------------------------- 
------------------------------------------------------------------- 
-5/17-17-17-17-17-17---5-5-5-5-5-5---5/17-17-17-17-17-17----------- 
------------------------------------------------------------------- 
------------------------------------------------------------------- 



------------------------------------------------------------------- 
------------------------------------------------------------------- 
------------------------------------------------------------------- 
---------15-------------------------------------------------------- 
-3/15--3/---15\3--3------------------------------------------------ 


ESTROFE 3 



------------------------------------------------------------------- 
------------------------------------------------------------------- 
------------------------------------------------------------------- 
------1h3-1---1h3-1---------1h3-1---1h3-1-------------------------- 
-3--3-------3-------1-3---3-------3-------1-3---------------------- 



------------------------------------------------5------------------ 
--------------------------------------------------x---------------- 
----------------------------------------------------x-3h5---------- 
---1h3-1---1h3-1---------1h3-1---1h3-1------1/3-------------------- 
-3-------3-------1-3---3-------3-------1-3------------------------- 




------------------------------------------------------------------- 
------------------------------------------------------------------- 
------------------------------------------------------------------- 
---1h3-1---1h3-1---------1h3-1------------------------------------- 
-3-------3-------1-3---3-------3-1-2-3----------------------------- 



------------------------------------------------------------------- 
------------------------------------------------------------------- 
------------------------------------------------------------------- 
------1h3-1---1h3-1---------1h3-1---1h3-1-------------------------- 
-3--3-------3-------1-3---3-------3-------1-3---------------------- 




-5--7--------------------------------------7-5-----2--------------- 
-----------------------------------------------3-5---3------------- 
--------------------------------------3-5--------------0-5-5------- 
---------1h3-1---1h3-1------1--3--4-5------------------------------ 
-------3-------3-------1-3----------------------------------------- 


REFRÃO 3 



------------------------------------------------------------------- 
------------------------------------------------------------------- 
-----------------------------------------5-5-5-5-5-5--------------- 
------1h3-1---1h3-1---------1h3-1---1h3---------------------------- 
-3--3-------3-------1-3---3-------3-------------------------------- 



----------------------------------x-------------------------------- 
------------------------------x-x---------------------------------- 
------------------------------------3h5---------------5-5-5-5-5-5-- 
-------1h3-1---1h3-1------1/3-------------1h3-1---1h3-------------- 
-3---3-------3-------1-3----------------3-------3------------------ 




------------------------------------------------------------------- 
------------------------------------------------------------------- 
-5/17-17-17-17-17-17---5-5-5-5-5-5---5/17-17-17-17-17-17----------- 
------------------------------------------------------------------- 
------------------------------------------------------------------- 

FINAL 


------------------------------------------------------------------- 
----------------------------------------------x-------------------- 
------------------------------------------------x--3-4h5----x------ 
----------------------------1h3-1---1h3-1-------------------------- 
-15\3/15\3/15\3/15\---3---3-------3-------1-3-------------x-----3-- 


------------------------------------------------------------------- 
----------------3-------------------------------------------------- 
------------3-5---5------------------------------------------------ 
-1h3-1----5-------------------------------------------------------- 
-------3----------------------------------------------------------- 


------------------------------------------------------------------- 
------------------------------------------------------------------- 
-----------------------------------3-5----------------------------- 
-------1h3-1---1h3-1------1-3-4-5---------------------------------- 
-3---3-------3-------1-3------------------------------------------- 



-----------------------5h7-5--------------------------------------- 
------------------------------------------------------------------- 
-5-x-3-2-0-----2----------------5---------------------------------- 
-----------1-3---1------------5---5-------------------------------- 
-------------------3----------------3------------------------------ 



------------------------------------------------------------------- 
------------------------------------------------------------------- 
------------------------------------------------------------------- 
-----1h3-1---1h3-1------------------------------------------------- 
-3-3-------3-------1-3--------------------------------------------- 


--------------------------------------10--------------------------- 
-x---------------12-12-12-12----10-12----12-----x------------------ 
---x-3-4h5-x-x-3/-------------12------------------x-3-4h5---x------ 
------------------------------------------------------------------- 
---------------------------------------------3------------x---3---- 


------------------------------------------------------------------- 
------------------------------------------------------------------- 
-------------------------------3-5/--17-17-17-17-17-17-17-17------- 
----1h3-1---1h3-1------1-3-4-5------------------------------------- 
----------3-------1--3----------------------------------------3---- 
  

top 5 | mark ronson
top
Outras músicas do artista letras do(a) Mark Ronson
Top cifras »Top artistas »
Petaxxon Comunicação Online
Cifras.com.br - Melhor e mais completo site de cifras e tablaturas do Brasil
Mais de 1 milhão de acordes de músicas cadastradas desde 2003
As informações contidas no nosso site são colaborações de seus usuários e podem conter erros, sendo assim, não nos responsabilizamos sobre nenhuma destas.
close
menos
mais
close
Cor dos acordes:

Cor da letra:

 

save
close
close
 
redimensionar