Cifras e Tablaturas
MxPx

MxPx

Responsibility

Cifras Cancelar Versão de Impressão Print

MxPx - Responsibility

Tom: E

  			Intro 
G|----------------------------------------------------------------------- 
D|----------------------------------------------------------------------- 
A|-7------7-7-7-7-7-7-7-7-7---------7---7-7-7-7-7-7-7-7-7---------------- 
E|----7---------------------5-5-5-5---7--------------------5-5-5-5------- 
 
G|-----------------------------------------------------------------------| 
D|-----------------------------------------------------------------------| 
A|-7------7-7-7-7-7-7-7-7-7---------7---7-7-7-7-7-7-7-7-7---------7------| 
E|----7---------------------5-5-5-5---7-------------------5-5-5-5---7----| 
 
Verse "I don't want this..." 
G|-----------------------------------------------------------------------| 
D|-----------------------------------------------------------------------| 
A|-----------------------------------------------------------------------| 
E|--0-0---5-5---0-0---5-5-5-5-5-5-5-0-0---5-5---0-0----5-5-5-5-5-5--5----| 
 
Pre-Chorus "Why lie, do or die..." 
G|-----------------------------------------------------------------------| 
D|-----------------------------------------------------------------------| 
A|-----------------------------------------------------------------------| 
E|--7--7-7-7-7-7-7-5--5-5-5-5-5-5-0--0-0-0-5-5-5-0--0-0-0-5-5-5--7-----5-| 
 
Chorus "Responsibility..." 
G|-----------------------------------------------------------------------| 
D|-----------------------------------------------------------------------| 
A|--7-7-7-7---------2-2/7-7-7-7------2-2/7-7-7-7------2-2-4--------------| 
E|-----------5-5----------------5-5--------------5-5----------5----7--7--| 
 
Hook 
G|-----------------------------------| 
D|-----------------------------------| 
A|-----------------------------------| 
E|--7-7-7-7-7-7-7-7-7-7-7-7----------| 
 
Funky part between Hook and Verse 
G|---------------------------------------------| 
D|---------------------------------------------| 
A|---7------7-7\-----7------7-7\------7--------| 
E|------7----------------7----------------7----| 
 
Repeat Verse, Pre-Chorus, Chorus and Hook 
 
Bridge  "I'm still young..."   The bass doesn't play during that cool 
snare and palm muted guitar thing, but if you want, just strum with your 
hand over the strings, muting them, making a sound, but not a note, as 
marked by the X's 
G|-------------------------------------------------------------------------- 
D|-------------------------------------------------------------------------- 
A|----------7-7-7-7-7-7-7-7-7-7-7-7-7-7-7-7-4-4-4-4-4-4-4-4-4-4-4-4-4-4-4-4- 
E|--X--X-------------------------------------------------------------------- 
 
Continued 
G|-------------------------------------------------------------------------- 
D|-------------------------------------------------------------------------- 
A|-----------------------------------------------------------7-------------- 
E|-7-7-7-7-7-7-7-7-7-7-7-7-7-7-7-7-5-5-5-5-5-5-5-5-5-5-5-5-------7---------- 
 
Continued even more 
G|-------------------------------------------------------------------------- 
D|-------------------------------------------------------------------------- 
A|--7-7-7-7-7-7-7-7-7-7-7-7-7-7-7-7-4-4-4-4-4-4-4-4-4-4-4-4-4-4-4-4--------- 
E|-------------------------------------------------------------------------- 
 
And once more, continued 
G|------------------------------------------------------------------------------| 
D|------------------------------------------------------------------------------| 
A|----------------------------------------------------------7-----------7-------| 
E|-7-7-7-7-7-7-7-7-7-7-7-7-7-7-7-7-5-5-5-5-5-5-5-5-5-5-5-5-----7----5-------7---| 
 
part in between bridge and Chorus (it's like half of the intro) 
G|------------------------------------------------------------------ 
D|------------------------------------------------------------------ 
A|-7-7-7-7-7-7-7-7---------7-----7-7-7-7-7-7-7-7-----------7-------- 
E|-----------------5-5-5-5----7-------------------5-5-5-5-----7----- 
 
Repeat Chorus 
 
Outro that resembles the Chorus 
G|------------------------------------------------------------------------ 
D|------------------------------------------------------------------------ 
A|------------------------------------------------------------------------ 
E|-0-0-0-0-0-0-0-0-5-5-5-5-7-7-7-7-0-0-0-0-0-0-0-0-5-5-5-5-7-7-7-7-------- 
 
Continued 
G|------------------------------------------------------------------------------------| 
D|------------------------------------------------------------------------------------| 
A|---------------------------------4-4-4-4-----------------4-4-4-4--------------------| 
E|-0-0-0-0-0-0-0-0-5-5-5-5-7-7-7-7---------5-5-5-5-7-7-7-7---------5-5-5-5-7-7-7-7-0--| 
 

    	

enviado porenviado por: abrahão
cifra enviadaCorrigida por: sem correções
logo top cifrasComente
ico música do artistaMúsicas deste artista
ico curtiuCurtiu?
ico destaqueDestaque
Petaxxon Comunicação Online

Cifras.com.br - Melhor e mais completo site de cifras e tablaturas do Brasil Mais de 1 milhão de acordes de músicas cadastradas desde 2003
As informações contidas no nosso site são colaborações de seus usuários e podem conter erros, sendo assim, não nos responsabilizamos sobre nenhuma destas.

close
menos
mais
close
Cor dos acordes:

Cor da letra:

close
Alinhar acordes a direita Alinhar acordes a esquerda Alinhar acordes em baixo Alinhar acordes no topo
close
  Mostrar todos os acordes Esconder acordes muito fáceis Esconder acordes fáceis Esconder acordes intermediários
redimensionar
glossário