Cifras e Tablaturas
Cifras Cancelar Versão de Impressão
cifras

Pharrell Williams - Happy

fixar na tela  
Exibindo: vídeo-aula ver clipes redimensionar

Tom:

F

  Estrofe 

----13-15-13-15/17-15-13-----13--------------------------------- 
-15-----------------------15----15------------------------------ 
---------------------------------------------------------------- 
---------------------------------------------------------------- 

Verso 

---------------------------------------------------------------- 
-3-1---------------3-1------------------------------------------ 
-----3-1---------------3-1-------------------------------------- 
---------4--1--------------4--1--------------------------------- 

---------------------------------------------------------------- 
---------------6-8-6-8/10-8-6---6------------------------------- 
--8-8-8-8-8-------------------8---8\---------------------------- 
---------------------------------------------------------------- 

---------------------------------------------------------------- 
-3-1---------------3-1------------------------------------------ 
-----3-1---------------3-1-------------------------------------- 
---------4-----------------4------------------------------------ 


Refrão 

----------6--------------5---------5---------------10\---------- 
--------6--------------5---------5------3-3---3-3--------------- 
-4--4-4-----4-3-3--3-3-----3--3------3-------------------------- 
---------------------------------------------------------------- 

Especial 

---------------------------------------------------------------- 
-3--3-3--3--3-3--3--3-3--3--3-3--3------------------------------ 
---------------------------------------------------------------- 
---------------------------------------------------------------- 

---------------------------------------------------------------- 
-3--3-3--3--3-3--3--3-3--3--3-3--3------------------------------ 
---------------------------------------------------------------- 
---------------------------------------------------------------- 
  

top 5 | pharrell williams
top rock'n roll
Outras músicas do artista letras do(a) Pharrell Williams
4.
Here
Top cifras »Top artistas »
Petaxxon Comunicação Online
Cifras.com.br - Melhor e mais completo site de cifras e tablaturas do Brasil
Mais de 1 milhão de acordes de músicas cadastradas desde 2003
As informações contidas no nosso site são colaborações de seus usuários e podem conter erros, sendo assim, não nos responsabilizamos sobre nenhuma destas.
close
menos
mais
close
Cor dos acordes:

Cor da letra:

 

save
close
close
 
redimensionar