Cifras e Tablaturas
Raul Seixas
Cifras Cancelar Versão de Impressão

Raul Seixas - MDC

Tom:

  			 
|--------------------------------------------- 
|---------------------------------------------   500x 
|--------------------------------------------- 
|-5-5--0-0-3-4-5-5---------------0-0-5-5------------------------------ 
 
tu es o grande amor da minha vida 
 
|------------------------------------------5-5-----5-5-----4-4----------- 
|--------------------------------------3-3-----3-3-----2-2-----2-2-5-5-3-3-2-2---------------- 
|-------------2-3-5-5------5-5-----3-5-----------------------------------------5---- 
|-55-000-5-55---------55-5-----5-5---------- 
 
 
 
aquele seu chaveiro escrito love... 
 
|------------------------------------------------------- 
|------------------------------------2-3-3--------3-3-------2-2-------2-2------ 
|----------------2-3-5-----2-3-5---5-------3-3--3-----3-3-3-----2-2-2-----5-5-3-3-2-2-------- 
|-5--5-0-0-5--55-------5-5-------5----------------------------------------------------5--- 
 
 
EEEEEEEEeeeeeeuu me lembrooo 
 
|--------------------------------------------- 
|------------------------------4-4------------------------- 
|-------------------4-4--4-2-2-----2-5-----5-7--7-7-7---------------------- 
|--5-000-5-00-5-4-2--------------------5-5------------5--- 
 
 
 
Eu sei!! q eu n vo fik aki sozinhooo... 
 
|--------------------------------------------- 
|----------------------------------------------2-------2-- 
|---7-7-7---7-7-7-------4-4-4-2-------5-----5----2-2-2---- 
|-5-------5-------5-4-2---------2-2-2---5-5---------- 
 
 
 
 
(pausa) 
 
Nada me interessa nesse instante........ 
 
 
|----------------------------------------------5-5-5-----5-5-5-----4-4-4------ 
|-------------------------7-7-7-----7-7-7--3-3-------3-3-------2-2-------2-2------------- 
|-----7-7-7----7-7-7--5-5-------5-5------------------------------------------5-5-3-3-2-2------ 
|-5-5------5-5----------------------------------------------------------------------------5- 
 
 
|--------------------------------------------- 
|------------------------7-7-7-----7-7-----3-3-------3--3-3-----2-2-------2-2-------- 
|---7-7-7-----7-7-7--5--5------5--5----5-7-----3-3-3----------------2-2-2-----5-5-3-3-2-2-------- 
|-5-------5--5----------------------------------------------------------------------------5--- 
 
 
 
 
DEEEEEEEEEEEEEEEII ATEEE... 
 
 
|--------------------------------------------- 
|------------------4--4-4-4-----4------------2--2------------- 
|-7-7-7-----7-7--7----------5-0---0-0--5------------5-3-2----------------- 
|-------5-5------------------------------5-5--------------5---- 
 
EEEEu sei!! 
 
 
|--------------------------------------------- 
|-------------------------------------7-7-------------- 
|--7-7---7-7-7-8-9---------9-9-9---5-5----5-6-7--7-------7-------------------- 
|5-----5----------9-9-9-7--------7-----------------7-7-7------------ 
 
 
 
 
(pausa) 
 
Quando eu me declarava voce ria.... 
 
 
|--------------------------------------------- 
|---------------------------------------2-3-3-------3-3-------2-2--------2-2-2----------------- 
|--------------2-3-5--5---2-3-5-5---3-4-------3-3-3-----3-3-3-----2-2-2--------5-5-5-3-3-3-2-2-2- 
|-5--0-0-5-5-5----------5---------5-------------------------------------------------------------5 
 
 
 
 
Não posso sentir cheiro de lasanha... 
 
 
|--------------------------------------------- 
|-------------------------------------------2-3-------3-3-------2-2-------2-2--------- 
|------------------2-3-5--5-------5-5-----5-----3-3-3-----3-3-3-----2-2-2-----5-5-3-3-2-2--- 
|-5-5-7-7-7-5--5-5----------5-5-5-----5-5-------------------------------------------------5-- 
 
 
 
 
 
 
 
|--------------------------------------------- 
|--------------------------------------------- 
|-7-7-7---7-------4-4-4-2--2-2-3-4-5-------7-----7-4---------------- 
|-------5---0-1-2--------------------5-5-5---7-7----5----- 
 
 
 
 
então.. 
 
|--------------------------------------------- 
|--------------------------------------------- 
|--7-7-7---7-------------4-4-4-2--2-2-3-4-5-----5-6-7-7------7------ 
|--------5---0--0-1-2--2--------------------5-5--------7-7-7--- 
 
 
 
 
 
(pausa) 
 
Na faculdade de agronomia.... 
 
 
|--------------------------------------------- 
|----------------------------------------2-3-------3-------2--------2-2---------- 
|-----7-7-7----------3-5-5-------5---3-5-----3-3-3---3-3-3---2-2-2------5-5-3-3-2-2-------- 
|-5-5-------5--5-5-7-------5-5-5---5------------------------------------------------5--- 
 
 
 
Eu tive um chilique desgraçado... 
 
 
|--------------------------------------------- 
|------------------------------------2-3-3-------3-3-------2-2-------2-2----------- 
|---7-7--7-----3-5-5-------5-5---3-5-------3-3-3-----3-3-3-----2-2-2-----5-5-3-3-2-2----------- 
|-5----5---5-7-------5-5-5-----5-----------------------------------------------------5---- 
 
 
 
EHHHHHHHH POR ISSOOOO 
 
|--------------------------------------------- 
|--------------------------------------------- 
|---7-7-7---7---7-------4-4-4-2------------------------------ 
|-5-------5---5---0-1-2-------------------------------- 
 
 
 
 
FINAL 
 
|--------------------------------------------- 
|----------------------------7-8-7-8-7-8-7-8-7----------------- 
|-7-7-7-7--5-5-5-5--7-7-7-7---------------------------------------------- 
|--------------------------------------------- 
 
 
 

    	
fixar
fixar inscrever-se

enviado porenviado por: v_3_r_m_3
cifra enviadaCorrigida por: sem correções
logo top cifrasComente
ico música do artistaMúsicas deste artista
ico curtiuCurtiu?
ico destaqueDestaque
Petaxxon Comunicação Online

Cifras.com.br - Melhor e mais completo site de cifras e tablaturas do Brasil Mais de 1 milhão de acordes de músicas cadastradas desde 2003
As informações contidas no nosso site são colaborações de seus usuários e podem conter erros, sendo assim, não nos responsabilizamos sobre nenhuma destas.

close
menos
mais
close
Cor dos acordes:

Cor da letra:

close
Alinhar acordes a direita Alinhar acordes a esquerda Alinhar acordes em baixo Alinhar acordes no topo
close
  Mostrar todos os acordes Esconder acordes muito fáceis Esconder acordes fáceis Esconder acordes intermediários
redimensionar
glossário