Cifras e Tablaturas
Stevie  Wonder

Stevie Wonder

Superstition Tablatura de Baixo Verificada

Ano: 1963
Album : Cavalo De Aço - Internacional
Compositor : (Stevie Wonder)

Cifras Cancelar Versão de Impressão
cifras

Stevie Wonder - Superstition

fixar na tela  
Exibindo: vídeo-aula ver clipes redimensionar

Tom:

Cm

  
Part 1: 

G|-------------------------------------------------------| 
D|-------------------------------------------------------| 
A|-------------------------------------------------------| 
E|-1---------------------2-1--------------------2-1------| 
B|---4-2--4-4-4-4--4-4-4-----2--4-4-4-4--4-4-4------2--4-| 

Part 2: 

G|---------------------------| 
D|---------------------------| 
A|---------4-6-----------4-6-| 
E|-4---4-6------4---4-6------| 
B|---7------------7----------| 



G|-----------------------------------| 
D|-----------------------------------| 
A|--------4-6-6-6----------4----6--6-| 
E|-4--4-6--------------4-6---6-------| 
B|--7---------------7----------------| 

G|------------------------| 
D|-----------6h8--4h6p4---| 
A|-6-4-6--4-------------6-| 
E|------------------------| 
B|------------------------| 

Part 3: 


G|-------------------------------------------------| 
D|---8---8---9---9---8---8---7---7---6---6---6---6-| 
A|-------------------------------------------------| 
E|-6---6---7---7---6---6---5---5---4---4---4---4---| 
B|-------------------------------------------------| 

G|----------------------------------------------------4----------| 
D|---8---8---9---9---8---8---7---7---6--------4---4-6---6--------| 
A|----------------------------------------4-6---6----------6/16\-| 
E|-6---6---7---7---6---6---5---5---4----6------------------------| 
B|---------------------------------------------------------------| 

G|----------------------------------------------------------------| 
D|---8---8---9---9---8---8---7---7---|---------4--4---------------| 
A|--------------------------------------4-6-4---------16\---------| 
E|-6---6---7---7---6---6---5---5---4--6------------------9\2/12---| 
B|----------------------------------------------------------------| 


G|---------------------------------------------------| 
D|-------------------------------------6h8--4h6-4~---| 
A|----6--6--------4----6--6--6-4-6--4----------------| 
E|------------4-6---6--------------------------------| 
B|-4--------7----------------------------------------| 

  

top 5 | stevie wonder
top pop music
Outras músicas do artista letras do(a) Stevie Wonder
Top cifras »Top artistas »
Petaxxon Comunicação Online
Cifras.com.br - Melhor e mais completo site de cifras e tablaturas do Brasil
Mais de 1 milhão de acordes de músicas cadastradas desde 2003
As informações contidas no nosso site são colaborações de seus usuários e podem conter erros, sendo assim, não nos responsabilizamos sobre nenhuma destas.
close
menos
mais
close
Cor dos acordes:

Cor da letra:

 

save
close
close
 
redimensionar