Cifras e Tablaturas
The Cat Empire

The Cat Empire

Falling

Cifras Cancelar Versão de Impressão Print

The Cat Empire - Falling

Tom:

  			
Main verse riff 
G|-------------------------------------------------------------------| 
D|-------------------------------------------------------------------| 
A|--6----6-6-6---6---6-----8----10---10-10-10---10---10-----8--------| 
E|-------------------------------------------------------------------| 

Verse 
G|-------------------------------------------------------------------| 
D|-------------------------------------------------------------------| 
A|--6----6-6-6---6---6-----------5----5-5-5----5----5----------------| 
E|-------------------------------------------------------------6-----| 

Chorus 
G|---------------------------------| 
D|---------------------------------| 
A|---------6-6---------------------| 
E|--3-3----------6-6----1-1--2-----| 

Bridge 
G|------------------------------------------------| 
D|------------------------------------------------| 
A|--5-5----5-5-----5-5-----5-5------5-5----5-5----| 
E|---------------5----------------5---------------| 

G|------------------------------------------------| 
D|------------------------------------------------| 
A|--/17-17-17-17-17-17-17-17-17------17------17---| 
E|--------------------------------17------17------| 

Play variations on this until the end: 
G|------------------|-----------8-7-----------| 
D|------------------|--------8--------7-------| 
A|--10----------5---|--10-----------5---------| 
E|------8---6-------|------8------------------| 



************************************ 

| /  Slide up 

************************************ 
    	
fixar
fixar inscrever-se

enviado porenviado por: alyslima
cifra enviadaCorrigida por: sem correções
logo top cifrasComente
ico música do artistaMúsicas deste artista
ico curtiuCurtiu?
ico destaqueDestaque
Petaxxon Comunicação Online

Cifras.com.br - Melhor e mais completo site de cifras e tablaturas do Brasil Mais de 1 milhão de acordes de músicas cadastradas desde 2003
As informações contidas no nosso site são colaborações de seus usuários e podem conter erros, sendo assim, não nos responsabilizamos sobre nenhuma destas.

close
menos
mais
close
Cor dos acordes:

Cor da letra:

close
Alinhar acordes a direita Alinhar acordes a esquerda Alinhar acordes em baixo Alinhar acordes no topo
close
  Mostrar todos os acordes Esconder acordes muito fáceis Esconder acordes fáceis Esconder acordes intermediários
redimensionar
glossário