Cifras e Tablaturas
Van Halen

Van Halen

Jump

Ano: 1984
Album : The Best of Both Worlds

Cifras Cancelar Versão de Impressão
cifras

Van Halen - Jump

fixar na tela  
Exibindo: vídeo-aula ver clipes redimensionar

Tom:

  
Intro: 

G|---5-------------------------------------------------------| 
D|-5---5-----------------5-----------------------------------| 
A|-------3-----------5h7-----3-3-3-3-3-3-3-3-3-3-3-3-3-3-3-3-| 
E|------------1--3-------------------------------------------| 

G|--------------------------------------------------------------------| 
D|-------------------------------5------------------------------------| 
A|-3-3-3-3-3-3-3-3-3---------5h7----3-3-3-3-3-3-3-3-3-3-3-3-3-3-3-3-3-| 
E|--------------------1--3--------------------------------------------| 

G|--------------------------------| 
D|--------------------------------| 
A|-3-3-3-3-3-3-3-3-3--------------| 
E|--------------------1--3--3-3-3-| 

Part 1: 

G|--------------------------------------------------------------------| 
D|--------------------------------------------------------------------| 
A|-3-3-3-3-3-3-3-3-3-3-3-3-3-3-3-3-3-3-3-3-3-3-3-3-3-3----------------| 
E|------------------------------------------------------1--3--3-3-3---|  

Part 2: 

G|-----------------------------------------------------------------| 
D|--------------5/7--5--------2-2----------------------------------| 
A|--------------------------------3-5------------3-3--5------------| 
E|--5--3--5--3--3/5--3--1--1-----------5-3-1--1----------5-3-1--1--| 

G|--------------------------------------------| 
D|------2-------------------------5-5---------| 
A|-3-3------------5h7-5-------5h7-----7-5-2-3-| 
E|--------3--3-3--------7-3-------------------| 

Part 3: 

G|-----------------------------------------------------------------| 
D|--------------5/7--5--------2-2----------------------------------| 
A|--------------------------------3-5------------3-3--5------------| 
E|--5--3--5--3--3/5--3--1--1-----------5-3-1--1----------5-3-1--1--| 

G|-------------------------------------------| 
D|-----2----------5h7-5-------------5--------| 
A|-3-3------------------7-------5h7---7-2--3-| 
E|--------3--3-3----------3-3-3--------------| 


Solo: 

G|-----3-3------------------6------3-3----------------6-| 
D|-------------4-------6------------------4------6------| 
A|--1---------------------4-----1-------------------4---| 
E|----------2----2---4------------------2---2--4--------| 

G|-----3-3------------------6------3-3----------------6-----| 
D|-------------4-------6------------------4------6----------| 
A|--1---------------------4-----1-------------------4-----3-| 
E|----------2----2---4------------------2---2--4------------| 

G|-----5----------------------------------------------| 
D|-5h7------------------------8/10-8------------------| 
A|--------3-------------------------------------------| 
E|------------3\1-1-3----6----6/8--6--5---0-5-0-4---3-| 

G|-2----------------------5-| 
D|----5--2--------------5---| 
A|----------5--2---3--------| 
E|--------------------------| 

End: 

G|----------------------------------------------------------------------| 
D|-------------------------------------------------------------------5--| 
A|-3-3-3-3-3-3-3-3-3-3-3-3-3-3-3-3-3-3-3-3-3-3-3-3-3-3-3---------5h7----| 
E|--------------------------------------------------------1--3----------| 
  

top 5 | van halen
top rock'n roll
Outras músicas do artista letras do(a) Van Halen
Top cifras »Top artistas »
Petaxxon Comunicação Online
Cifras.com.br - Melhor e mais completo site de cifras e tablaturas do Brasil
Mais de 1 milhão de acordes de músicas cadastradas desde 2003
As informações contidas no nosso site são colaborações de seus usuários e podem conter erros, sendo assim, não nos responsabilizamos sobre nenhuma destas.
close
menos
mais
close
Cor dos acordes:

Cor da letra:

 

save
close
close
 
redimensionar