Cifras e Tablaturas
Van Morrison

Van Morrison

Stepping Out Queen

Cifras Cancelar Versão de Impressão Print

Van Morrison - Stepping Out Queen

Tom:

  			
Intro 
(00:13) 
G|--------|---------------------|---------------------|---------------------|-------------------| 
D|--------|---------------------|---------------------|---------------------|-------------------| 
A|--------|-3-------------------|---------------------|-3-------------------|-------------------| 
E|-0-0-1-3|--------------0-0-1-3|-1------------0-0-1-3|--------------0-0-1-3|-1--------1----1---| 

Verse 
G|---------------------|---------------------|---------------------|---------------------| 
D|---------------------|---------------------|---------------------|---------------------| 
A|---------------------|-----------7---------|---------------------|------2----5---------| 
E|-5-------5-5------x-5|-5----8---------5---0|-3-------3-3------x-3|-3--------------3---0| 

G|-----------------------|-----------------------|---------------------|---------------------------| 
D|-----------------------|-----------------------|---------------------|-3--3-3-3---3-5---5-5-5----| 
A|-------------------3-/5|-/7--------------------|-5------x-5-5-------5|------------------------0-2| 
E|-1-------1-1-----1-----|----------0-0-----0-x-0|---------------------|---------------------------| 

Interlude 
G|---------------------|---------------------|---------------------|-------------------| 
D|---------------------|---------------------|---------------------|-------------------| 
A|-3-------------------|---------------------|-3-------------------|-------------------| 
E|--------------0-0-1-3|-1------------0-0-1-3|--------------0-0-1-3|-1--------1----1---| 

Verse 
G|---------------------|--------------------|---------------------|--------------------| 
D|---------------------|--------------------|---------------------|--------------------| 
A|---------------------|-----------7--------|---------------------|------2----5--------| 
E|-5-------5-5------x-5|-5----8---------5---|-3-------3-3------x-3|-3--------------3---| 

G|-----------------------|-----------------------|-------------------------|---------------------------| 
D|-----------------------|-----------------------|-------------------------|-3--3-3-3---3-5---5-5-5----| 
A|-------------------3-/5|-/7-----------------7-6|-5------x-5-5---5-5-5-5-5|------------------------0-2| 
E|-1-------1-1-----1-----|----------0-0-----7----|-------------------------|---------------------------| 

Interlude 
G|---------------------|---------------------|---------------------|-----------------------| 
D|---------------------|---------------------|---------------------|----------------------0| 
A|-3-------------------|---------------------|-3-------------------|----------------0-1-3--| 
E|--------------x-0-1-3|-1------------0-0-1-3|--------------0-0-1-3|-1--------1--3---------| 

Bridge 
G|---------------------|---------------------|-----------------------|--------------4---4-7-----| 
D|-3-------3-3-----3-4-|-5----7----5----7--5-|-3---------3--3---3-4-4|-5--5-5-7---7----------5-5| 
A|---------------------|---------------------|---------3-------------|--------------------------| 
E|---------------------|---------------------|-----------------------|--------------------------| 

G|---------------------|--------------|----------------| 
D|-3-------3-3--3-----3|-5---5-5-3----|----------------| 
A|---------------------|-----------5-3|-------------0-2| 
E|---------------------|--------------|-3-3-3-3-3-3----| 

Interlude 
G|---------------------|---------------------|---------------------|-------------------| 
D|---------------------|---------------------|---------------------|-------------------| 
A|-3-------------------|---------------------|-3-------------------|-------------------| 
E|--------------0-0-1-3|-1------------0-0-1-3|--------------0-0-1-3|-1--------1----1---| 

Solo 
G|---------------------|----------------------------|---------------------|----------------------------| 
D|---------------------|----------------------------|---------------------|----------------------------| 
A|---------------------|---------------7-7--7-------|---------------------|--------2-2--2-5-5--5-------| 
E|-5-------5-5------x-5|-5-5--5-8-8--8--------5-5--5|-3-------3-3------x-3|-3-3--3---------------3-3--3| 

G|-----------------------|----------------9--9------|-------------------------|------------------------------| 
D|-----------------------|--------------9------9----|-------------------------|-3-3-3-3--3-3-5--5-5-5-5-5----| 
A|-------------------3-/5|-/7-------7-7----------7-\|-5------x-5--5-5--5-5-5-5|---------------------------0-2| 
E|-1-------1-1-----1-----|--------------------------|-------------------------|------------------------------| 

Interlude 
G|---------------------|---------------------|---------------------|------------------------| 
D|---------------------|---------------------|---------------------|-----------------------0| 
A|-3-------------------|---------------------|-3-------------------|-----------------0-1-3--| 
E|--------------0-0-1-3|-1------------0-0-1-3|--------------0-0-1-3|-1--------1-1-3---------| 

Bridge 
G|----------------------|-----------------------|----------------------|---------------4--4-4-7-----| 
D|-3---------3--3---3-4-|-5---------5--5---5-7-\|-3-------3-3--3---3-4-|-5--5-5-7--7-7-----------5-5| 
A|---------3------------|---------5-------------|----------------------|----------------------------| 
E|----------------------|-----------------------|----------------------|----------------------------| 

G|---------------------|---------------4--4-4-7-----| 
D|-3-------3-3--3-----3|-5--5-5-7--7-7--------------| 
A|---------------------|------------------------0-2-| 
E|---------------------|----------------------------| 

Interlude 
G|---------------------|---------------------|---------------------|-------------------| 
D|---------------------|---------------------|---------------------|-------------------| 
A|-3-------------------|---------------------|-3-------------------|-------------------| 
E|--------------0-0-1-3|-1------------0-0-1-3|--------------0-0-1-3|-1--------1----1---| 

Verse 
G|---------------------|--------------------|---------------------|--------------------| 
D|---------------------|--------------------|---------------------|--------------------| 
A|---------------------|-----------7--------|---------------------|------2----5--------| 
E|-5-------5-5------x-x|-5----8---------5---|-3-------3-3------x-x|-3--------------3---| 

G|-----------------------|-----------------------|------------------------|--------------------------------| 
D|-----------------------|-----------------------|---------------------7-5|-3-3-3-3-3-3-3-4-5-5-5-5-5-5----| 
A|-------------------3-/5|-/7-----------------7-6|-5---5-5--5---5----5----|-----------------------------0-2| 
E|-1-------1-1-----1-----|----------0-0-----7----|------------------------|--------------------------------| 

Interlude 
G|---------------------|---------------------|---------------------|---------------------|--| 
D|---------------------|---------------------|---------------------|---------------------|--| 
A|-3-------------------|---------------------|-3-------------------|---------------------|-3| 
E|--------------0-0-1-3|-1------------0-0-1-3|--------------0-0-1-3|-1------------1-1-x-3|--| 

Outro 
(04:32 ~ 05:05 - No Bass) 

(05:06)                                                              (fade out) 
G|-----|-----------------|------------------|-----------------|----------------| 
D|-----|-----------------|------------------|-----------------|----------------| 
A|-----|-3---------------|------------------|-3---------------|----------------| 
E|--0--|-----------------|-1-------------0--|-----------------|-1-------------0| 


************************************** 

| / Slide up 
| \ Slide down 
| x Dead note 

************************************** 
    	
fixar
fixar inscrever-se

enviado porenviado por: IronPower4Ever
cifra enviadaCorrigida por: sem correções
logo top cifrasComente
ico música do artistaMúsicas deste artista
ico curtiuCurtiu?
ico destaqueDestaque
Petaxxon Comunicação Online

Cifras.com.br - Melhor e mais completo site de cifras e tablaturas do Brasil Mais de 1 milhão de acordes de músicas cadastradas desde 2003
As informações contidas no nosso site são colaborações de seus usuários e podem conter erros, sendo assim, não nos responsabilizamos sobre nenhuma destas.

close
menos
mais
close
Cor dos acordes:

Cor da letra:

close
Alinhar acordes a direita Alinhar acordes a esquerda Alinhar acordes em baixo Alinhar acordes no topo
close
  Mostrar todos os acordes Esconder acordes muito fáceis Esconder acordes fáceis Esconder acordes intermediários
redimensionar
glossário