Cifras e Tablaturas
Vaya Con Dios

Vaya Con Dios

Remember

Cifras Cancelar Versão de Impressão Print

Vaya Con Dios - Remember

Tom:

  			
Intro 
G|---------------| 
D|---------------| 
A|---------------| 
E|---------------|  (x8) 
  ^   ^   ^   ^   ^ 
G|---------------| 
D|------------5--| 
A|7---5---7------| 
E|---------------|  (x8) 
  ^   ^   ^   ^   ^ 

Verse 
G|---------------| 
D|------------5--| 
A|7---5---7------| 
E|---------------|  (x8) 
  ^   ^   ^   ^   ^ 
G|---------------| 
D|---------------| 
A|------------7--| 
E|5---7---8------|  (x8) 
  ^   ^   ^   ^   ^ 

Pre-Chorus 
G|---------------|---------------| 
D|------------9--|8-------7------| 
A|----7---9------|----9-------7--| 
E|10-------------|---------------|  (x5) 
  ^   ^   ^   ^   ^   ^   ^   ^   ^ 

Chorus 
G|---------------| 
D|------------5--| 
A|7---5---7------| 
E|---------------|  (x8) 
  ^   ^   ^   ^   ^ 

Verse 
G|---------------| 
D|------------5--| 
A|7---5---7------| 
E|---------------|  (x8) 
  ^   ^   ^   ^   ^ 
G|---------------| 
D|---------------| 
A|------------7--| 
E|5---7---8------|  (x8) 
  ^   ^   ^   ^   ^ 

Pre-Chorus 
G|---------------|---------------| 
D|------------9--|8-------7------| 
A|----7---9------|----9-------7--| 
E|10-------------|---------------|  (x5) 
  ^   ^   ^   ^   ^   ^   ^   ^   ^ 

Chorus 
G|---------------| 
D|------------5--| 
A|7---5---7------| 
E|---------------|  (x8) 
  ^   ^   ^   ^   ^ 

Solo 
G|---------------| 
D|------------5--| 
A|7---5---7------| 
E|---------------|  (x8) 
  ^   ^   ^   ^   ^ 
G|---------------| 
D|---------------| 
A|------------7--| 
E|5---7---8------|  (x8) 
  ^   ^   ^   ^   ^ 

Pre-Chorus 
G|---------------|---------------| 
D|------------9--|8-------7------| 
A|----7---9------|----9-------7--| 
E|10-------------|---------------|  (x5) 
  ^   ^   ^   ^   ^   ^   ^   ^   ^ 

Outro 
G|---------------| 
D|---------------| 
A|---------------| 
E|---------------|  (x8) 
  ^   ^   ^   ^   ^ 
G|---------------| 
D|------------5--| 
A|7---5---7------| 
E|---------------|  (x7) 
  ^   ^   ^   ^   ^ 
G|---------------|---------------| 
D|---------------|---------------| 
A|7--------------|7---5-7--------| 
E|------7--------|---------------| 
  ^   ^   ^   ^   ^   ^   ^   ^   ^ 
    	
fixar
fixar inscrever-se

enviado porenviado por: tamamoreira
cifra enviadaCorrigida por: sem correções
logo top cifrasComente
ico música do artistaMúsicas deste artista
ico curtiuCurtiu?
ico destaqueDestaque
Petaxxon Comunicação Online

Cifras.com.br - Melhor e mais completo site de cifras e tablaturas do Brasil Mais de 1 milhão de acordes de músicas cadastradas desde 2003
As informações contidas no nosso site são colaborações de seus usuários e podem conter erros, sendo assim, não nos responsabilizamos sobre nenhuma destas.

close
menos
mais
close
Cor dos acordes:

Cor da letra:

close
Alinhar acordes a direita Alinhar acordes a esquerda Alinhar acordes em baixo Alinhar acordes no topo
close
  Mostrar todos os acordes Esconder acordes muito fáceis Esconder acordes fáceis Esconder acordes intermediários
redimensionar
glossário