10 Yers

10 Yers

Rest
nível sem nível
[Intro ]
...   ..   ...  .. .. .. .. .. 
------------------------------------------------| 
------------------------------------------------| 
------------------------------------------------| 
000---00---000--00-00-00-00-00------------------| 
000---00---000--00-00-00-00-00------------------| 
000---00---000--00-00-00-00-0012/---------------| 
 
Verse 
..  .  .    ..  .  . everything is here is 12's 13's 10's and 0's. 
------------------------------------------------| 
------------------------------------------------| 
------------------------------------------------| 
------------------------------------------------| x8 
--12-13---12--12-13-----------------------------| 
00--0--012--00--0--012p10-----------------------| 
 
Chorus 
------------------------------------------------| 
------------------------------------------------| 
------------------------------------------------| 
222222222/33333335555555555555555---------------| x4 (8 last time) 
222222222/33333335555555555555555---------------| 
222222222/33333335555555555555555---------------| 
 
 
Pre-verse 
...  .. 
------------------------------------------------| 
------------------------------------------------| 
------------------------------------------------| 
000--00-----------------------------------------| 
000--00-----------------------------------------| 
000--00-----------------------------------------| 
 
Play Chorus then: 
------------------------------------------------| 
------------------------------------------------| 
------------------------------------------------| 
0~~~~~~~~~~~~~~~~~~~~~~~~~~~~~~~~~~~~~~~~~~~~~~~ 
0~~~~~~~~~~~~~~~~~~~~~~~~~~~~~~~~~~~~~~~~~~~~~~~ 
0~~~~~~~~~~~~~~~~~~~~~~~~~~~~~~~~~~~~~~~~~~~~~~~ 
 
Bridge (Very unsure about this, the last time this is played is without the little 7 at  
end there) 
------------------------------------------------| 
------------------------------------------------| 
7--6--------------------------------------------| 
5--4--7-----------------------------------------| 
------5--7~~~~~~~~~7----------------------------| 
---------7~~~~~~~~~-----------------------------| 
 
Outro 
------------------------------------------------| 
------------------------------------------------| 
------------------------------------------------| 
22-0-22-0-33-0-33-0-5555555555555555------------| x2 
22-0-22-0-33-0-33-0-5555555555555555------------| 
22-0-22-0-33-0-33-0-5555555555555555------------| 
 
   .    .    . 
------------------------------------------------| 
------------------------------------------------| 
------------------------------------------------| 
22-0-22-0-33-0-33--55---55----------------------| 
22-0-22-0-33-0-33--55---55----------------------| 
22-0-22-0-33-0-33--55---55----------------------|

Enviado por: Jorge Umemaru

Corrigido por: sem correções