Cifras e Tablaturas
220 Volt

220 Volt

Heavy Christmas

Cifras Cancelar Versão de Impressão
cifras

220 Volt - Heavy Christmas

fixar na tela  
Exibindo: vídeo-aula ver clipes redimensionar

Tom:

  
 Riff 1 Intro 
e|-5-4---------------------------------------| 
B|-----7-5-4---------------------------------| 
G|-----------6-4-----------------------------| 
D|---------------6-5-4-----------------------| 
A|---------------------7-5-4-----------------| 
E|---------------------------7-5-4-0---------| 

Riff 2 X4 Main 
e|-------------------------------------------------------------------| 
B|-------------------------------------------------------------------| 
G|-------------------------------------------------------------------| 
D|------------------------------------------2p0----------------------| 
A|----------------------------------------------4-2-5-4-3-2----------| 
E|-0h2-2--2-2-2--0h2-2--2-2-2--0h2-2--2-2-2--------------------------| 
PM     *  *****      *  *****      *  ***** 


Riff 3 (Excitement fills the room...) X2 
e|---------------------------------------------------------------------------| 
B|---------------------------------------------------------------------------| 
G|-----------------------------------2---------------------------------------| 
D|------------------------------2-4--2------------------------------2-4--2---| 
A|------------------------------2-4---------------------------------2-4--2---| 
E|-0h2-2-2-2-2-2-2-2-2-2-2-2-2---------0h2-2-2-2-2-2-2-2-2-2-2-2-2-----------| 
PM     ***********************             *********************** 

Riff 4(The time has come for the lucky ones...) 
e|------------------------| 
B|------------------------| 
G|-2-------4--------------| 
D|-2---2---4---4----------| 
A|-0---2---2---4----------| 
E|-----0-------2--2-0-----| 


Riff 5(They're playing around...) 
e|------------------------------------------------------------------------------------------------| 
B|------------------------------------------------------------------------------------------------| 
G|-7----------------------------------------------------------------------------------------------| 
D|-7--7------------------------------------------------------------------------------------2------| 
A|-5--5-5-5-5-5-5-5-5-5-5-5-5-5-5-5-5-5--4-4-4-4-4-4-4-4-2-2-2-2-2-2-2-2-0-0-0-0-0-0-0-0---2------| 
E|-----------------------------------------------------------------------------------------0------| 
PM      *******************************  ************************************************ 
Riff 6(Heavy christmas..)X2 
e|----------------------------------------------| 
B|----------------------------------------------| 
G|-----2---------2---6-4-------2---------4------| 
D|-2-4-2-4---2-4-2-4-6-4---2-4-2-4---2---4------| 
A|-2-4-0-4---2-4-0-4-4-2---2-4-0-4---2---2------| 
E|-0-2---2---0-2---2-------0-2---2---0----------| 

Riff 2 X2 
Riff 3 X2 
Riff 4 
Riff 5 
Riff 6 X2 


Riff 7 Solo rhythm 
e|---------------------------------------------------------------------------| 
B|---------------------------------------------------------------------------| 
G|---------------------------------------------------------------------------| 
D|---------------------------------------------------------------------------| 
A|---------------------------------------------------------------------------| 
E|-0h2-2-2-2-2-2-2-2-2-2-2-2-2-2-2--0h2-2-2-2-2-2-2-2-2-2-2-2-2-2-2----------| 
PM     ***************************      *************************** 

Riff 4 
Riff 5  
Riff 6 X4 

Play Riff 2 for Outro 


************************************ 

| PM  palm mute 
| h   Hammer-on 
| p   Pull-off 

************************************ 
  

top 5 | 220 volt
top rock'n roll
Outras músicas do artista letras do(a) 220 Volt
Top cifras »Top artistas »
Petaxxon Comunicação Online
Cifras.com.br - Melhor e mais completo site de cifras e tablaturas do Brasil
Mais de 1 milhão de acordes de músicas cadastradas desde 2003
As informações contidas no nosso site são colaborações de seus usuários e podem conter erros, sendo assim, não nos responsabilizamos sobre nenhuma destas.
close
menos
mais
close
Cor dos acordes:

Cor da letra:

 

save
close
close
 
redimensionar