Cifras e Tablaturas
2Polos

2Polos

Humaníase

Cifras Cancelar Versão de Impressão
cifras

2Polos - Humaníase

fixar na tela  
Exibindo: vídeo-aula ver clipes redimensionar
  
Intro: Em G Am C (2x) 
      (Em C) 

    3X com palm mute      3X s/ palm mute 
E|--------------------|--------------------| 
B|--------------------|--------------------| 
G|--------------------|--------------------| 
D|-7-7-10-7-9-7----7--|-7-7-10-7-9-7----7--| 
A|--------------10----|--------------10----| 
E|--------------------|--------------------| 

E|--------------------------| 
B|--------------------------| 
G|--7-----------------------| 
D|----10-9-10-9-7-10-9-7~~--| 
A|--------------------------| 
E|--------------------------| 

E|---------------------|-------------------------------------------| 
B|---------------------|-------------------------------------------| 
G|--12-14-14b16r14-12--|-----------12------------------------------| 
D|---------------------|-----12-14----14---14-12-14-12---12--------| 
A|---------------------|--14--------------------------14------14\7-| 
E|---------------------|-------------------------------------------| 


(Em  C )(2x) 


E|-------------------|-----------------------------------------------| 
B|-------------------|-----------------------------------12--15b17---| 
G|-------------------|---12b13r12---14b15r14--12b13r12---------------| 
D|---14b15r14--(5X)--|-----------------------------------------------| 
A|-------------------|-----------------------------------------------| 
E|-------------------|-----------------------------------------------| 

E|----------------------------------------|------------------------| 
B|----------------------------------------|------------------------| 
G|-------12-------------------------------|------------------------| 
D|----------14----------------------------|---12--12h14--12--------| 
A|---/14~~-------14-12--10----10----------|-----------------15-14--| 
E|------------------------12----12-10-12--|------------------------| 

(Em   C )(2x) 
Saber 

Solo: Em   C (8x) 


E|-----------------------------------|-----------------------------| 
B|-----------------------------------|-----------------------------| 
G|-------------------------------12--|----12----12h14p12----12-----| 
D|------12-14-14--12-14-14-12-14-----|-14----14----------14---14---| 
A|--/14------------------------------|-----------------------------| 
E|-----------------------------------|-----------------------------| 

E|-------------------------------|---------------------------------| 
B|-------------------------------|--------------12-----------------| 
G|--14p12------------------------|--12-----------------12----14-12-| 
D|--------14----12---12----------|-----14-12-14-----14----14-------| 
A|-----------14---14---14-12-14--|---------------------------------| 
E|-------------------------------|---------------------------------| 


E|----------------------------------------------| 
B|--17p15----15---------------------------------| 
G|--------16----16-14-12--16-14---14-16-14------| 
D|-----------------------------17----------17---| 
A|----------------------------------------------| 
E|----------------------------------------------| 

E|-------------------------------------------| 
B|-------------------------------------------| 
G|---------------------------------12--------| 
D|--14b15-14b15-14b15--------12-14----14-12--| 
A|---------------------14-14-----------------| 
E|-------------------------------------------| 

E|----------------------------------------| 
B|----------------------------------------| 
G|--------------16-14----14-16-14---------| 
D|--14-16-16b17--------17----------17-----| 
A|----------------------------------------| 
E|----------------------------------------| 

E|----------------------------------------| 
B|--16b17-16b17-16b17---------------------| 
G|---------------------12-14-14-12--------| 
D|---------------------------------14-14--| 
A|----------------------------------------| 
E|----------------------------------------| 

E|----------------------------| 
B|----------------------------| 
G|----------------------------| 
D|--14-12----14-12---12-------| 
A|-------14-------14----9/10--| 
E|----------------------------| 

         C          Em              G                         Bm 
E ele vai em paz, sem se preocupar, sem olhar pra trás 
      C           Em     G     Bm     Em 
Ele vai em paz... 


E|-------------------------------------------------------| 
B|-------------------------------------------------------| 
G|--12-14b16r14-----------12-----------------------------| 
D|------------------12-14----14--14-12-14-12----12-------| 
A|---------------14--------------------------14----9/10--| 
E|-------------------------------------------------------| 


E|-----------------------------------| 
B|-----------------------------------| 
G|----------------9-7----------------| 2X 
D|-------7------7-----9-7---------7--| 
A|--7-10---7-10-----------10-7-10----| 
E|-----------------------------------| 


E|--------------------------------------| 
B|--------------------------------------| 
G|---------9-7------------9-7-----------| 4X 
D|-------7-----9-7------7-----9-7-------| 
A|--7-10-----------7-10-----------10-7--| 
E|--------------------------------------| 

E|--------------------------------------| 
B|--------------------------------------| 
G|---------9-7--------------------------|  
D|-------7-----9-7------7-7-7-----------| 
A|--7-10-----------7-10-----------------| 
E|--------------------------------------| 
  

cifra enviadasem correções
enviado porenviada por:GBFeitosa
top 5 | 2polos
top rock'n roll
Outras músicas do artista letras do(a) 2Polos
Top cifras »Top artistas »
Petaxxon Comunicação Online
Cifras.com.br - Melhor e mais completo site de cifras e tablaturas do Brasil
Mais de 1 milhão de acordes de músicas cadastradas desde 2003
As informações contidas no nosso site são colaborações de seus usuários e podem conter erros, sendo assim, não nos responsabilizamos sobre nenhuma destas.
close
menos
mais
close
Cor dos acordes:

Cor da letra:

 

save
close
close
 
redimensionar