Cifras e Tablaturas
3030

3030

Bom Dia

Cifras Cancelar Versão de Impressão
cifras

3030 - Bom Dia

fixar na tela  
Exibindo: vídeo-aula ver clipes redimensionar

Tom:

A

ver outros tons
         A7+ 
E|------------------0--------------| 
B|----------------0-------0--------| 
G|--------------6-----------6------| 
D|------------6---------------6----| 
A|------0--------------------------| 
E|---------------------------------| 
 
       F#m7 
E|------------------0--------------| 
B|----------------0-------0--------| 
G|--------------2-----------2------| 
D|------------2---------------2----| 
A|---------------------------------| 
E|------2--------------------------| 
 
       C#m 
E|------------------0--------------| 
B|----------------0-------0--------| 
G|--------------4-----------4------| (2x) 
D|------------2---------------2----| 
A|------4--------------------------| 
E|---------------------------------| 
 
       A7+ 
E|------------0-------5p0----------| 
B|----------0-----0-------0--------| 
G|--------6-----------------6------| 
D|------6--------------------------| 
A|--0------------------------------| 
E|--------------------------5---4--| 
 
       F#m7 
E|------------------------4p2p0----|  
B|----------2-------------------2--| 
G|--------2-----2------------------| 
D|------2--------------------------| 
A|---------------------------------| 
E|--2-----------------------0---0--| 
 
       C#m 
E|------------4--------------------|  
B|------4---5---------5---5p4------| 
G|----4-------------4--------------| 
D|--6-------------6----------------| 
A|-4-------------------------------| 
E|---------------------------------| 
 
( A7+  F#m7  C#m7 ) a música toda 

Bom dia, o sol brilha na minha janela hoje 
E eu pensando e se esse dia fosse 
Diferente, menos cinza, tipo, mais cores 
Se a grama do vizinho é verde eu falo traz flores 
Não é uma vida, cada vida é única 
Não é uma noite pra fazer uma música 
Bem que eu queria ter a sorte de súdita 
Se eu me afogo em meus anseios, é uma morte súbita 
Juntando os cacos sem sair de casa 
Tô vendo o mundo mas só pela casca 
Já vou sair mas não arrumei a mala 

Eu tô dizendo, eu vou atirar mas não arrumei a bala 
E a cada lágrima, meu mundo desaba, me desarma 
E cada mágoa eu transformo em risada 
Se eu ando em águas é um milagre a levada 
Minha calma deságua, eu nado no nada se o barco naufraga 
Eu já cansei de viver o que eu vivi 
Eu já cansei de chorar o que eu não vi 
Eu já falei, eu não saio daqui 
Até o sol nascer de novo hoje cês vão me ouvir 
Eu já cansei de viver o que eu não vi 
Eu já cansei de chorar o que eu vivi 
Eu já falei, eu não saio daqui 
Tudo que eu tenho pra dizer hoje cês vão ouvir (hoje cês vão me ouvir) 

Não dá 
Cansei de viver assim 
Já não dá pra repetir os mesmos erros 
Cansei de viver assim 

Hoje é um bom dia pra esquecer o que me aflige 
De todos os problemas são poucos que me atingem 
Deixa a razão de lado se concentra e só finge 
Que nada mais importa, tudo é certo então um brinde 
Eu não quero o poder da esfinge, nem parte do trono 
Eu não quero seus brindes, agrados e bônus 
Eu tenho meus timbres, stereos e monos 
A faixa, a mensagem, é isso que somos 
Monte de cromossomos, malucos, doentes 
Só água e carbono, o amor e o antônimo 
Assírios e babilônios 
Contradição, mantras e vícios, distúrbios crônicos 
Demônios e anjos, fome e obesidade 
Não somos mais nada além do que nós dizemos que somos 
Quem te disser o contrário mano, desbanca na cara otário 
é quem só aceita a verdade do jeito que chega aos olhos 
Não projete em mim sua frustração 
Do jeito que eu vim e que eu sou é como eu vou terminar 
Não projete em mim suas ambições 
A confiança que eu carrego não cabe no julgamento 
Não projete em mim em vão 
Eu só lamento, se eu tiver que te decepcionar 
Antes você do que eu 
E a certeza que eu criei é maior que meu entendimento 
Mas do jeito que eu ando aqui não dá 

Não dá 
Cansei de viver assim 
Já não dá pra repetir os mesmos erros 
Cansei de viver assim 
  

cifra enviadasem correções
enviado porenviada por:gustsilva
top 5 | 3030
top rock'n roll
Outras músicas do artista letras do(a) 3030
4.
Ogum
Top cifras »Top artistas »
Petaxxon Comunicação Online
Cifras.com.br - Melhor e mais completo site de cifras e tablaturas do Brasil
Mais de 1 milhão de acordes de músicas cadastradas desde 2003
As informações contidas no nosso site são colaborações de seus usuários e podem conter erros, sendo assim, não nos responsabilizamos sobre nenhuma destas.
close
menos
mais
close
Cor dos acordes:

Cor da letra:

 

save
close
close
 
redimensionar