Cifras e Tablaturas
A Day to Remember

A Day to Remember

Bullfight

Cifras Cancelar Versão de Impressão
cifras

A Day to Remember - Bullfight

fixar na tela  
Exibindo: vídeo-aula ver clipes redimensionar

Tom:

  
Intro 

Guitar 1: 
d|----------------------------| 
A|-6--6--6--6--6--6--6--6-----| 
F|-7--7--7--7--7--7--7--7-----| 
C|-7--7--7--7--7--7--7--7-----| 
G|----------------------------| 
C|----------------------------| 


verse 1 

Guitar 1: 
d|-------------------------------------------------------------------------------------------------| 
A|-6--6--6--6--6--6--6--6--6--6--6--6--6--6--6--6--6--6--6--6--6--6--6--6--6--6--6--6--6--6--6--6--| 
F|-7--7--7--7--7--7--7--7--7--7--7--7--7--7--7--7--7--7--7--7--7--7--7--7--7--7--7--7--7--7--7--7--| 
C|-7--7--7--7--7--7--7--7--7--7--7--7--7--7--7--7--7--7--7--7--7--7--7--7--7--7--7--7--7--7--7--7--| 
G|-------------------------------------------------------------------------------------------------| 
C|-------------------------------------------------------------------------------------------------| 

d|-------------------------------------------------------------------------------------------------| 
A|-6--6--6--6--6--6--6--6--6--6--6--6--6--6--6--6--6--6--6--6--6--6--6--6--6--6--6--6--6--6--6--6--| 
F|-7--7--7--7--7--7--7--7--7--7--7--7--7--7--7--7--7--7--7--7--7--7--7--7--7--7--7--7--7--7--7--7--| 
C|-7--7--7--7--7--7--7--7--7--7--7--7--7--7--7--7--7--7--7--7--7--7--7--7--7--7--7--7--7--7--7--7--| 
G|-------------------------------------------------------------------------------------------------| 
C|-------------------------------------------------------------------------------------------------| 

Guitar 2: 
d|------------------------------------------------------| 
A|----------------------5~--------8~---------8--------5-| 
F|-----------7~-----7---------7---------7--------7------| 
C|-------7--------8---8-----8---8-----7---7----7---7----| 
G|-----5---5--------------------------------------------| 
C|------------------------------------------------------| 

d|------------------------------------------------------| 
A|----------------------5~--------8~---------8--------5-| 
F|-----------7~-----7---------7---------7--------7------| 
C|-------7--------8---8-----8---8-----7---7----7---7----| 
G|-----5---5--------------------------------------------| 
C|------------------------------------------------------| 

d|------------------------------------------------------| 
A|----------------------5~--------8~---------8--------5-| 
F|-----------7~-----7---------7---------7--------7------| 
C|-------7--------8---8-----8---8-----7---7----7---7----| 
G|-----5---5--------------------------------------------| 
C|------------------------------------------------------| 

d|------------------------------------------------------| 
A|----------------------5~--------8~---------8--------5-| 
F|-----------7~-----7---------7---------7--------7------| 
C|-------7--------8---8-----8---8-----7---7----7---7----| 
G|-----5---5--------------------------------------------| 
C|------------------------------------------------------| 


PRE Chorus 1 

Guitar 1: 
d|-----------------------------------------------------------------------------------------------------------| 
A|-----------------------------------------------------------------------------------------------------------| 
F|-7-7-7-7-7-7-7-7-7-7-7-7--9/10-9-7-9/10-9-7--5/7--7--7-7-7-7-7-7-7-7-7-7-7-7--9/10-9--7--9/10-9--7--5/7--7-| 
C|-x-x-x-x-x-x-x-x-x-x-x-x--x/x--x-x-x/x--x-x--x/x--x--x-x-x-x-x-x-x-x-x-x-x-x--x/x--x--x--x/x--x--x--x/x--x-| 
G|-5-5-5-5-5-5-5-5-5-5-5-5--7/8--7-5-7/8--7-5--3/5--5--5-5-5-5-5-5-5-5-5-5-5-5--7/8--7--5--7/8--7--5--3/5--5-| 
C|-----------------------------------------------------------------------------------------------------------| 

d|-------------------------------------------------------------------------------------------------| 
A|-------------------------------------------------------------------------------------------------| 
F|-7-7-7-7-7-7-7-7-7-7-7-7--9/10-9--7--9/10-9--7--5/7--7--7-7-7-7-7-7-7-7-7-7-7-7--6~--14-12-------| 
C|-x-x-x-x-x-x-x-x-x-x-x-x--x/x--x--x--x/x--x--x--x/x--x--x-x-x-x-x-x-x-x-x-x-x-x--x---------15-14-| 
G|-5-5-5-5-5-5-5-5-5-5-5-5--7/8--7--5--7/8--7--5--3/5--5--5-5-5-5-5-5-5-5-5-5-5-5--4~--------------| 
C|-------------------------------------------------------------------------------------------------| 

Guitar 2: 
d|---------------------------------------------------------------------------| 
A|---------------------------------------------------------------------------| 
F|---------------------------------------------------------------------------| 
C|-8-8-8-8-8-8-8-8-8-8-8-8-8-8-8-8--12-12-12-12-12-12-12-12--7-7-7-7-7-7-7-7-|   
G|-8-8-8-8-8-8-8-8-8-8-8-8-8-8-8-8--12-12-12-12-12-12-12-12--7-7-7-7-7-7-7-7-| 
C|-8-8-8-8-8-8-8-8-8-8-8-8-8-8-8-8--12-12-12-12-12-12-12-12--7-7-7-7-7-7-7-7-| 

d|---------------------------------------------------------------------------| 
A|---------------------------------------------------------------------------| 
F|---------------------------------------------------------------------------| 
C|-8-8-8-8-8-8-8-8-8-8-8-8-8-8-8-8--12-12-12-12-12-12-12-12--7-7-7-7-7-7-7-7-|   
G|-8-8-8-8-8-8-8-8-8-8-8-8-8-8-8-8--12-12-12-12-12-12-12-12--7-7-7-7-7-7-7-7-| 
C|-8-8-8-8-8-8-8-8-8-8-8-8-8-8-8-8--12-12-12-12-12-12-12-12--7-7-7-7-7-7-7-7-| 

d|---------------------------------------------------------------------------| 
A|---------------------------------------------------------------------------| 
F|---------------------------------------------------------------------------| 
C|-8-8-8-8-8-8-8-8-8-8-8-8-8-8-8-8--12-12-12-12-12-12-12-12--7-7-7-7-7-7-7-7-|   
G|-8-8-8-8-8-8-8-8-8-8-8-8-8-8-8-8--12-12-12-12-12-12-12-12--7-7-7-7-7-7-7-7-| 
C|-8-8-8-8-8-8-8-8-8-8-8-8-8-8-8-8--12-12-12-12-12-12-12-12--7-7-7-7-7-7-7-7-| 

d|----------------------------------------------------| 
A|----------------------------------------------------| 
F|----------------------------------------------------| 
C|-8-8-8-8-8-8-8-8-8-8-8-8-8-8-8-8---7~---15-14-------|   
G|-8-8-8-8-8-8-8-8-8-8-8-8-8-8-8-8---7~---------17-15-| 
C|-8-8-8-8-8-8-8-8-8-8-8-8-8-8-8-8---7~---------------| 


Chorus 1 

Guitar 1: 
d|--------------------------------------------------------------| 
A|--------------------------------------------------------------| 
F|--------7--------------7---------------7--------------7-------| 
C|----7-----7---7----7-----7---7-----7-----7---7----7-----7---7-| 
G|--5---5-----5----5---5-----5-----5---5-----5----5---5-----5---| 
C|--------------------------------------------------------------| 

d|------------------------------------------------------------| 
A|--------5-------------5-------------5--------------5--------| 
F|----7-----7---7---7-----7---7---7-----7---7----7-----7---7--| 
C|--8---8-----8---8---8-----8---8---8-----8----7---7-----7----| 
G|------------------------------------------------------------| 
C|------------------------------------------------------------| 

d|--------------------------------------------------------------| 
A|--------------------------------------------------------------| 
F|--------7--------------7---------------7--------------7-------| 
C|----7-----7---7----7-----7---7-----7-----7---7----7-----7---7-| 
G|--5---5-----5----5---5-----5-----5---5-----5----5---5-----5---| 
C|--------------------------------------------------------------| 

d|------------------------------------------------------------| 
A|--------5-------------5-------------5--------------5--------| 
F|----7-----7---7---7-----7---7---7-----7---7----7-----7---7--| 
C|--8---8-----8---8---8-----8---8---8-----8----7---7-----7----| 
G|------------------------------------------------------------| 
C|------------------------------------------------------------| 

Guitar 2: 
d|-----------------------------------------------------------------| 
A|-----------------------------------------------------------------| 
F|-----------------------------------------------------------------| 
C|-0-0-0-0-0-0-0-0-0-0-0-0-0-0-0-0-0-0-0-0-0-0-0-0-0-0-0-0-0-0-0-0-| 
G|-0-0-0-0-0-0-0-0-0-0-0-0-0-0-0-0-0-0-0-0-0-0-0-0-0-0-0-0-0-0-0-0-| 
C|-0-0-0-0-0-0-0-0-0-0-0-0-0-0-0-0-0-0-0-0-0-0-0-0-0-0-0-0-0-0-0-0-| 

d|------------------------------------------------------------------| 
A|------------------------------------------------------------------| 
F|------------------------------------------------------------------| 
C|-8-8-8-8-8-8-8-8-8-8-8-8-8-8-8-8-8-8-8-8-8-8-8-8--7-7-7-7-7-7-7-7-| 
G|-8-8-8-8-8-8-8-8-8-8-8-8-8-8-8-8-8-8-8-8-8-8-8-8--7-7-7-7-7-7-7-7-| 
C|-8-8-8-8-8-8-8-8-8-8-8-8-8-8-8-8-8-8-8-8-8-8-8-8--7-7-7-7-7-7-7-7-| 

d|-----------------------------------------------------------------| 
A|-----------------------------------------------------------------| 
F|-----------------------------------------------------------------| 
C|-0-0-0-0-0-0-0-0-0-0-0-0-0-0-0-0-0-0-0-0-0-0-0-0-0-0-0-0-0-0-0-0-| 
G|-0-0-0-0-0-0-0-0-0-0-0-0-0-0-0-0-0-0-0-0-0-0-0-0-0-0-0-0-0-0-0-0-| 
C|-0-0-0-0-0-0-0-0-0-0-0-0-0-0-0-0-0-0-0-0-0-0-0-0-0-0-0-0-0-0-0-0-| 

d|------------------------------------------------------------------| 
A|------------------------------------------------------------------| 
F|------------------------------------------------------------------| 
C|-8-8-8-8-8-8-8-8-8-8-8-8-8-8-8-8-8-8-8-8-8-8-8-8--7-7-7-7-7-7-7-7-| 
G|-8-8-8-8-8-8-8-8-8-8-8-8-8-8-8-8-8-8-8-8-8-8-8-8--7-7-7-7-7-7-7-7-| 
C|-8-8-8-8-8-8-8-8-8-8-8-8-8-8-8-8-8-8-8-8-8-8-8-8--7-7-7-7-7-7-7-7-| 


Post-Chorus 

Both Guitars: 
d|------------------------------------------------------------------------------------| 
A|------------------------------------------------------------------------------------| 
F|------------------------------------------------------------------------------------| 
C|------10h12-0--0--------10h12-0--0---0--0-------10h12-0--0--------10h12-0--0---0--0-| 
G|-0-0--10h12-0--0---0-0--10h12-0--0---0--0--0-0--10h12-0--0---0-0--10h12-0--0---0--0-| 
C|-0-0--10h12-0--0---0-0--10h12-0--0---0--0--0-0--10h12-0--0---0-0--10h12-0--0---0--0-| 
pm . .               . .                     . .               . .     

d|----------------------------------------------------------------------------| 
A|----------------------------------------------------------------------------| 
F|----------------------------------------------------------------------------| 
C|------10h12-0--0--------10h12-0--0---0--0-------7h8-8-8-------7h8-8-8--7--7-| 
G|-0-0--10h12-0--0---0-0--10h12-0--0---0--0--8-8--7h8-8-8--8-8--7h8-8-8--7--7-| 
C|-0-0--10h12-0--0---0-0--10h12-0--0---0--0--8-8--7h8-8-8--8-8--7h8-8-8--7--7-| 
pm . .               . .                     . .           . .  


verse 2 

Guitar 1: 
d|----------------------------| 
A|-6--6--6--6--6--6--6--6-----| 
F|-7--7--7--7--7--7--7--7-----| 
C|-7--7--7--7--7--7--7--7-----| 
G|----------------------------| 
C|----------------------------| 

Guitar 1: 
d|-------------------------------------------------------------------| 
A|-------------------------------------------------------------------| 
F|-------------------------------------------------------------------| 
C|-------------------------------------------------------------------| 
G|-0-0-0-0-0-0-0-0-0-0-0-0-0-0-0-0--8-8-8-8-8-8-8-8-8-8-8-8-8-8-8-8--| 
C|-0-0-0-0-0-0-0-0-0-0-0-0-0-0-0-0--8-8-8-8-8-8-8-8-8-8-8-8-8-8-8-8--| 
pm . . . . . . . . . . . . . . . .  . . . . . . . . . . . . . . . .  

d|-------------------------------------------------------------------| 
A|-------------------------------------------------------------------| 
F|-------------------------------------------------------------------| 
C|-------------------------------------------------------------------| 
G|-5-5-5-5-5-5-5-5-5-5-5-5-5-5-5-5--7-7-7-7-7-7-7-7-7-7-7-7-7-7-7-7--| 
C|-5-5-5-5-5-5-5-5-5-5-5-5-5-5-5-5--7-7-7-7-7-7-7-7-7-7-7-7-7-7-7-7--| 
pm . . . . . . . . . . . . . . . .  . . . . . . . . . . . . . . . .  

d|----------------------------------------------------------------------------------------------------| 
A|----------------------------------------------------------------------------------------------------| 
F|----------------------------------------------------------------------------------------------------| 
C|-----0-0------0-0------0------0-0------0-0------0------8-8------8-8------8------8-8------8-8------8-| 
G|-0-0-0-0--0-0-0-0--0-0-0--0-0-0-0--0-0-0-0--0-0-0--8-8-8-8--8-8-8-8--8-8-8--8-8-8-8--8-8-8-8--8-8-8-| 
C|-0-0-0-0--0-0-0-0--0-0-0--0-0-0-0--0-0-0-0--0-0-0--8-8-8-8--8-8-8-8--8-8-8--8-8-8-8--8-8-8-8--8-8-8-| 
pm . .      . .      . .    . .      . .      . .    . .      . .      . .    . .      . .      . .  

d|----------------------------------------------------------------------------------------------------| 
A|----------------------------------------------------------------------------------------------------| 
F|----------------------------------------------------------------------------------------------------| 
C|-----5-5------5-5------5------5-5------5-5------5------7-7------7-7------7------7-7------7-7------7-| 
G|-5-5-5-5--5-5-5-5--5-5-5--5-5-5-5--5-5-5-5--5-5-5--7-7-7-7--7-7-7-7--7-7-7--7-7-7-7--7-7-7-7--7-7-7-| 
C|-5-5-5-5--5-5-5-5--5-5-5--5-5-5-5--5-5-5-5--5-5-5--7-7-7-7--7-7-7-7--7-7-7--7-7-7-7--7-7-7-7--7-7-7-| 
pm . .      . .      . .    . .      . .      . .    . .      . .      . .    . .      . .      . .  

Guitar 2: 
d|------------------------------------------------------| 
A|----------------------5~--------8~---------8--------5-| 
F|-----------7~-----7---------7---------7--------7------| 
C|-------7--------8---8-----8---8-----7---7----7---7----| 
G|-----5---5--------------------------------------------| 
C|------------------------------------------------------| 

d|------------------------------------------------------| 
A|----------------------5~--------8~---------8--------5-| 
F|-----------7~-----7---------7---------7--------7------| 
C|-------7--------8---8-----8---8-----7---7----7---7----| 
G|-----5---5--------------------------------------------| 
C|------------------------------------------------------| 


Pre-Chorus 

Guitar 1: 
d|-----------------------------------------------------------------------------------------------------------| 
A|-----------------------------------------------------------------------------------------------------------| 
F|-7-7-7-7-7-7-7-7-7-7-7-7--9/10-9-7-9/10-9-7--5/7--7--7-7-7-7-7-7-7-7-7-7-7-7--9/10-9--7--9/10-9--7--5/7--x-| 
C|-x-x-x-x-x-x-x-x-x-x-x-x--x/x--x-x-x/x--x-x--x/x--x--x-x-x-x-x-x-x-x-x-x-x-x--x/x--x--x--x/x--x--x--x/x--x-| 
G|-5-5-5-5-5-5-5-5-5-5-5-5--7/8--7-5-7/8--7-5--3/5--5--5-5-5-5-5-5-5-5-5-5-5-5--7/8--7--5--7/8--7--5--3/5--x-| 
C|-----------------------------------------------------------------------------------------------------------| 

d|-------------------------------------------------------------------------------------------------| 
A|-------------------------------------------------------------------------------------------------| 
F|-7-7-7-7-7-7-7-7-7-7-7-7--9/10-9--7--9/10-9--7--5/7--7--7-7-7-7-7-7-7-7-7-7-7-7--6~--14-12-------| 
C|-x-x-x-x-x-x-x-x-x-x-x-x--x/x--x--x--x/x--x--x--x/x--x--x-x-x-x-x-x-x-x-x-x-x-x--x---------15-14-| 
G|-5-5-5-5-5-5-5-5-5-5-5-5--7/8--7--5--7/8--7--5--3/5--5--5-5-5-5-5-5-5-5-5-5-5-5--4~--------------| 
C|-------------------------------------------------------------------------------------------------| 

Guitar 2: 
d|---------------------------------------------------------------------------| 
A|---------------------------------------------------------------------------| 
F|---------------------------------------------------------------------------| 
C|-8-8-8-8-8-8-8-8-8-8-8-8-8-8-8-8--12-12-12-12-12-12-12-12--7-7-7-7-7-7-7-x-|   
G|-8-8-8-8-8-8-8-8-8-8-8-8-8-8-8-8--12-12-12-12-12-12-12-12--7-7-7-7-7-7-7-x-| 
C|-8-8-8-8-8-8-8-8-8-8-8-8-8-8-8-8--12-12-12-12-12-12-12-12--7-7-7-7-7-7-7-x-| 

d|---------------------------------------------------------------------------| 
A|---------------------------------------------------------------------------| 
F|---------------------------------------------------------------------------| 
C|-8-8-8-8-8-8-8-8-8-8-8-8-8-8-8-8--12-12-12-12-12-12-12-12--7-7-7-7-7-7-7-7-|   
G|-8-8-8-8-8-8-8-8-8-8-8-8-8-8-8-8--12-12-12-12-12-12-12-12--7-7-7-7-7-7-7-7-| 
C|-8-8-8-8-8-8-8-8-8-8-8-8-8-8-8-8--12-12-12-12-12-12-12-12--7-7-7-7-7-7-7-7-| 

d|---------------------------------------------------------------------------| 
A|---------------------------------------------------------------------------| 
F|---------------------------------------------------------------------------| 
C|-8-8-8-8-8-8-8-8-8-8-8-8-8-8-8-8--12-12-12-12-12-12-12-12--7-7-7-7-7-7-7-7-|   
G|-8-8-8-8-8-8-8-8-8-8-8-8-8-8-8-8--12-12-12-12-12-12-12-12--7-7-7-7-7-7-7-7-| 
C|-8-8-8-8-8-8-8-8-8-8-8-8-8-8-8-8--12-12-12-12-12-12-12-12--7-7-7-7-7-7-7-7-| 

d|----------------------------------------------------| 
A|----------------------------------------------------| 
F|----------------------------------------------------| 
C|-8-8-8-8-8-8-8-8-8-8-8-8-8-8-8-8---7~---15-14-------|   
G|-8-8-8-8-8-8-8-8-8-8-8-8-8-8-8-8---7~---------17-15-| 
C|-8-8-8-8-8-8-8-8-8-8-8-8-8-8-8-8---7~---------------| 


Chorus 2 

Guitar 1: 
d|--------------------------------------------------------------| 
A|--------------------------------------------------------------| 
F|--------7--------------7---------------7--------------7-------| 
C|----7-----7---7----7-----7---7-----7-----7---7----7-----7---7-| 
G|--5---5-----5----5---5-----5-----5---5-----5----5---5-----5---| 
C|--------------------------------------------------------------| 

d|------------------------------------------------------------| 
A|--------5-------------5-------------5--------------5--------| 
F|----7-----7---7---7-----7---7---7-----7---7----7-----7---7--| 
C|--8---8-----8---8---8-----8---8---8-----8----7---7-----7----| 
G|------------------------------------------------------------| 
C|------------------------------------------------------------| 

d|--------------------------------------------------------------| 
A|--------------------------------------------------------------| 
F|--------7--------------7---------------7--------------7-------| 
C|----7-----7---7----7-----7---7-----7-----7---7----7-----7---7-| 
G|--5---5-----5----5---5-----5-----5---5-----5----5---5-----5---| 
C|--------------------------------------------------------------| 

d|------------------------------------------------------------| 
A|--------5-------------5-------------5--------------5--------| 
F|----7-----7---7---7-----7---7---7-----7---7----7-----7---7--| 
C|--8---8-----8---8---8-----8---8---8-----8----7---7-----7----| 
G|------------------------------------------------------------| 
C|------------------------------------------------------------| 


Guitar 2: 
d|-----------------------------------------------------------------| 
A|-----------------------------------------------------------------| 
F|-----------------------------------------------------------------| 
C|-0-0-0-0-0-0-0-0-0-0-0-0-0-0-0-0-0-0-0-0-0-0-0-0-0-0-0-0-0-0-0-0-| 
G|-0-0-0-0-0-0-0-0-0-0-0-0-0-0-0-0-0-0-0-0-0-0-0-0-0-0-0-0-0-0-0-0-| 
C|-0-0-0-0-0-0-0-0-0-0-0-0-0-0-0-0-0-0-0-0-0-0-0-0-0-0-0-0-0-0-0-0-| 

d|------------------------------------------------------------------| 
A|------------------------------------------------------------------| 
F|------------------------------------------------------------------| 
C|-8-8-8-8-8-8-8-8-8-8-8-8-8-8-8-8-8-8-8-8-8-8-8-8--7-7-7-7-7-7-7-7-| 
G|-8-8-8-8-8-8-8-8-8-8-8-8-8-8-8-8-8-8-8-8-8-8-8-8--7-7-7-7-7-7-7-7-| 
C|-8-8-8-8-8-8-8-8-8-8-8-8-8-8-8-8-8-8-8-8-8-8-8-8--7-7-7-7-7-7-7-7-| 

d|-----------------------------------------------------------------| 
A|-----------------------------------------------------------------| 
F|-----------------------------------------------------------------| 
C|-0-0-0-0-0-0-0-0-0-0-0-0-0-0-0-0-0-0-0-0-0-0-0-0-0-0-0-0-0-0-0-0-| 
G|-0-0-0-0-0-0-0-0-0-0-0-0-0-0-0-0-0-0-0-0-0-0-0-0-0-0-0-0-0-0-0-0-| 
C|-0-0-0-0-0-0-0-0-0-0-0-0-0-0-0-0-0-0-0-0-0-0-0-0-0-0-0-0-0-0-0-0-| 

d|------------------------------------------------------------------| 
A|------------------------------------------------------------------| 
F|------------------------------------------------------------------| 
C|-8-8-8-8-8-8-8-8-8-8-8-8-8-8-8-8-8-8-8-8-8-8-8-8--7-7-7-7-7-7-7-7-| 
G|-8-8-8-8-8-8-8-8-8-8-8-8-8-8-8-8-8-8-8-8-8-8-8-8--7-7-7-7-7-7-7-7-| 
C|-8-8-8-8-8-8-8-8-8-8-8-8-8-8-8-8-8-8-8-8-8-8-8-8--7-7-7-7-7-7-7-7-| 


Post-Chorus 

Both Guitars: 
d|----------------------------------------------------------------------| 
A|----------------------------------------------------------------------| 
F|----------------------------------------------------------------------| 
C|------0-0-0-0--------0-0-0-0--0--0-------0-0-0-0--------0-0-0-0--0--0-| 
G|-0-0--0-0-0-0---0-0--0-0-0-0--0--0--0-0--0-0-0-0---0-0--0-0-0-0--0--0-| 
C|-0-0--0-0-0-0---0-0--0-0-0-0--0--0--0-0--0-0-0-0---0-0--0-0-0-0--0--0-| 
pm . .            . .                 . .            . .     

d|---------------------------------------------------------------------| 
A|---------------------------------------------------------------------| 
F|---------------------------------------------------------------------| 
C|------0-0-0-0--------0-0-0-0--0--0-------7h8-8-8-------7h8-8-8--7--7-| 
G|-0-0--0-0-0-0---0-0--0-0-0-0--0--0--8-8--7h8-8-8--8-8--7h8-8-8--7--7-| 
C|-0-0--0-0-0-0---0-0--0-0-0-0--0--0--8-8--7h8-8-8--8-8--7h8-8-8--7--7-| 
pm . .            . .                 . .           . .  


BREAKDOWN 

Part 1 

Guitar 1: 
d|------------------------------------------------------| 
A|------------------------------------------------------| 
F|-7--10-9--12--10-14--12--15--7--10-9--12--10-9--7--5--| 
C|-x--x--x--x---x--x---x---x---x--x--x--x---x--x--x--x--| 
G|-5--8--7--10--8--12--10--13--5--8--7--10--8--7--5--3--| 
C|------------------------------------------------------| 

d|------------------------------------------------------| 
A|------------------------------------------------------| 
F|-7--10-9--12--10-14--12--15--7--10-9--12--10-9--7--5--| 
C|-x--x--x--x---x--x---x---x---x--x--x--x---x--x--x--x--| 
G|-5--8--7--10--8--12--10--13--5--8--7--10--8--7--5--3--| 
C|------------------------------------------------------| 

Guitar 2: 
d|-----| 
A|-----| 
F|-(7)-| 
C|-(x)-|  Feedback 
G|-(5)-| 
C|-----| 

Part 2 

Guitar 1: 
d|--------------------------------------------------------------------------------------------------| 
A|--------------------------------------------------------------------------------------------------| 
F|--------------------------------------------------------------------------------7--3--7--10-9--7--| 
C|---------0---------0-----0---------0------------------------0---------0-----0---x--x--x--x--x--x--|   
G|--0-0-0--0--0-0-0--0--0--0--0-0-0--0---0-0-0---------0-0-0--0--0-0-0--0--0--0---5--1--5--8--7--5--| 
C|--0-0-0--0--0-0-0--0--0--0--0-0-0--0---0-0-0--0h1-1--0-0-0--0--0-0-0--0--0--0---------------------| 
pm  . . .     . . .     .     . . .      . . .         . . .     . . .     .       

d|--------------------------------------------------------------------------------------------------| 
A|--------------------------------------------------------------------------------------------------| 
F|--------------------------------------------------------------------------------7--3--7--10-9--7--| 
C|---------0---------0-----0---------0------------------------0---------0-----0---x--x--x--x--x--x--|   
G|--0-0-0--0--0-0-0--0--0--0--0-0-0--0---0-0-0---------0-0-0--0--0-0-0--0--0--0---5--1--5--8--7--5--| 
C|--0-0-0--0--0-0-0--0--0--0--0-0-0--0---0-0-0--0h1-1--0-0-0--0--0-0-0--0--0--0---------------------| 
pm  . . .     . . .     .     . . .      . . .         . . .     . . .     .       

Guitar 2: 
d|--------------------------------------------------------------------------------------------------| 
A|--------------------------------------------------------------------------------------------------| 
F|--------------------------------------------------------------------------------------------------| 
C|---------0---------0-----0---------0------------------------0---------0-----0---------------------|   
G|--0-0-0--0--0-0-0--0--0--0--0-0-0--0---0-0-0---------0-0-0--0--0-0-0--0--0--0---0--0--0--0--0--0--| 
C|--0-0-0--0--0-0-0--0--0--0--0-0-0--0---0-0-0--0h1-1--0-0-0--0--0-0-0--0--0--0---0--0--0--0--0--0--| 
pm  . . .     . . .     .     . . .      . . .         . . .     . . .     .      .  .  .  .  .  . 

d|--------------------------------------------------------------------------------------------------| 
A|--------------------------------------------------------------------------------------------------| 
F|--------------------------------------------------------------------------------------------------| 
C|---------0---------0-----0---------0------------------------0---------0-----0---------------------|   
G|--0-0-0--0--0-0-0--0--0--0--0-0-0--0---0-0-0---------0-0-0--0--0-0-0--0--0--0---0--0--0--0--0--0--| 
C|--0-0-0--0--0-0-0--0--0--0--0-0-0--0---0-0-0--0h1-1--0-0-0--0--0-0-0--0--0--0---0--0--0--0--0--0--| 
pm  . . .     . . .     .     . . .      . . .         . . .     . . .     .      .  .  .  .  .  . 

Part 3 

Guitar 1: 
d|------------------------------------------------------| 
A|------------------------------------------------------| 
F|-7--10-9--12--10-14--12--15--7--10-9--12--10-9--7--5--| 
C|-x--x--x--x---x--x---x---x---x--x--x--x---x--x--x--x--| 
G|-5--8--7--10--8--12--10--13--5--8--7--10--8--7--5--3--| 
C|------------------------------------------------------| 

d|------------------------------------------------------------| 
A|------------------------------------------------------------| 
F|-7--10-9--12--10-14--12--15--7--10-9--12--7--3--7--10-9--7--| 
C|-x--x--x--x---x--x---x---x---x--x--x--x---x--x--x--x--x--x--| 
G|-5--8--7--10--8--12--10--13--5--8--7--10--5--1--5--8--7--5--| 
C|------------------------------------------------------------| 

Guitar 2: 
d|------------------------------------------------------------------------------------------------| 
A|------------------------------------------------------------------------------------------------| 
F|------------------------------------------------------------------------------------------------| 
C|---------0---------0-----0---------0----------0---------0---------0-----0----------0---------0--|   
G|--0-0-0--0--0-0-0--0--0--0--0-0-0--0---0-0-0--0--0-0-0--0--0-0-0--0--0--0---0-0-0--0--0-0-0--0--| 
C|--0-0-0--0--0-0-0--0--0--0--0-0-0--0---0-0-0--0--0-0-0--0--0-0-0--0--0--0---0-0-0--0--0-0-0--0--| 
pm  . . .     . . .     .     . . .      . . .     . . .     . . .     .      . . .     . . . 

d|----------------------------------------------------------------------------------------------| 
A|----------------------------------------------------------------------------------------------| 
F|----------------------------------------------------------------------------------------------| 
C|---------0---------0-----0---------0----------0---------0---------0-----0---------------------|   
G|--0-0-0--0--0-0-0--0--0--0--0-0-0--0---0-0-0--0--0-0-0--0--0-0-0--0--0--0---0--0--0--0--0--0--| 
C|--0-0-0--0--0-0-0--0--0--0--0-0-0--0---0-0-0--0--0-0-0--0--0-0-0--0--0--0---0--0--0--0--0--0--| 
pm  . . .     . . .     .     . . .      . . .     . . .     . . .     .      .  .  .  .  .  . 


Pre-Chorus 


Guitar 1: 
d|----------------------------------------------------------------------------| 
A|----------------------------------------------------------------------------| 
F|-7~------11~----6~----------------------------------------------------9-----| 
C|-8~------12~----7~-----------------------------------12--12-----7-------7---| 
G|-8~------12~----7~--8-8-8-8-8-8-8-8-8-8-8-8-8-8-8-8--12--12-------7-------7-| 
C|-8~------12~----7~--8-8-8-8-8-8-8-8-8-8-8-8-8-8-8-8--12--12---------7-------| 
pm                    . . . . . . . . . . . . . . . . 

Guitar 2: 
d|-------------------------------------------------------------------| 
A|-------------------------------------------------------------------| 
F|-------------------------------------------------------------------| 
C|-8~--------------------------------------------------12--12--------| 
G|-8~-----------------8-8-8-8-8-8-8-8-8-8-8-8-8-8-8-8--12--12--------| 
C|-8~-----------------8-8-8-8-8-8-8-8-8-8-8-8-8-8-8-8--12--12--------| 
pm                    . . . . . . . . . . . . . . . .  


Chorus 3 

Guitar 1: 
d|--------------------------------------------------------------| 
A|--------------------------------------------------------------| 
F|--------7--------------7---------------7--------------7-------| 
C|----7-----7---7----7-----7---7-----7-----7---7----7-----7---7-| 
G|--5---5-----5----5---5-----5-----5---5-----5----5---5-----5---| 
C|--------------------------------------------------------------| 

d|------------------------------------------------------------| 
A|--------5-------------5-------------5--------------5--------| 
F|----7-----7---7---7-----7---7---7-----7---7----7-----7---7--| 
C|--8---8-----8---8---8-----8---8---8-----8----7---7-----7----| 
G|------------------------------------------------------------| 
C|------------------------------------------------------------| 

d|--------------------------------------------------------------| 
A|--------------------------------------------------------------| 
F|--------7--------------7---------------7--------------7-------| 
C|----7-----7---7----7-----7---7-----7-----7---7----7-----7---7-| 
G|--5---5-----5----5---5-----5-----5---5-----5----5---5-----5---| 
C|--------------------------------------------------------------| 

d|------------------------------------------------------------| 
A|--------5-------------5-------------5--------------5--------| 
F|----7-----7---7---7-----7---7---7-----7---7----7-----7---7--| 
C|--8---8-----8---8---8-----8---8---8-----8----7---7-----7----| 
G|------------------------------------------------------------| 
C|------------------------------------------------------------| 


Guitar 2: 
d|-----------------------------------------------------------------| 
A|-----------------------------------------------------------------| 
F|-----------------------------------------------------------------| 
C|-0-0-0-0-0-0-0-0-0-0-0-0-0-0-0-0-0-0-0-0-0-0-0-0-0-0-0-0-0-0-0-0-| 
G|-0-0-0-0-0-0-0-0-0-0-0-0-0-0-0-0-0-0-0-0-0-0-0-0-0-0-0-0-0-0-0-0-| 
C|-0-0-0-0-0-0-0-0-0-0-0-0-0-0-0-0-0-0-0-0-0-0-0-0-0-0-0-0-0-0-0-0-| 

d|------------------------------------------------------------------| 
A|------------------------------------------------------------------| 
F|------------------------------------------------------------------| 
C|-8-8-8-8-8-8-8-8-8-8-8-8-8-8-8-8-8-8-8-8-8-8-8-8--7-7-7-7-7-7-7-7-| 
G|-8-8-8-8-8-8-8-8-8-8-8-8-8-8-8-8-8-8-8-8-8-8-8-8--7-7-7-7-7-7-7-7-| 
C|-8-8-8-8-8-8-8-8-8-8-8-8-8-8-8-8-8-8-8-8-8-8-8-8--7-7-7-7-7-7-7-7-| 

d|-----------------------------------------------------------------| 
A|-----------------------------------------------------------------| 
F|-----------------------------------------------------------------| 
C|-0-0-0-0-0-0-0-0-0-0-0-0-0-0-0-0-0-0-0-0-0-0-0-0-0-0-0-0-0-0-0-0-| 
G|-0-0-0-0-0-0-0-0-0-0-0-0-0-0-0-0-0-0-0-0-0-0-0-0-0-0-0-0-0-0-0-0-| 
C|-0-0-0-0-0-0-0-0-0-0-0-0-0-0-0-0-0-0-0-0-0-0-0-0-0-0-0-0-0-0-0-0-| 

d|------------------------------------------------------------------| 
A|------------------------------------------------------------------| 
F|------------------------------------------------------------------| 
C|-8-8-8-8-8-8-8-8-8-8-8-8-8-8-8-8-8-8-8-8-8-8-8-8--7-7-7-7-7-7-7-7-| 
G|-8-8-8-8-8-8-8-8-8-8-8-8-8-8-8-8-8-8-8-8-8-8-8-8--7-7-7-7-7-7-7-7-| 
C|-8-8-8-8-8-8-8-8-8-8-8-8-8-8-8-8-8-8-8-8-8-8-8-8--7-7-7-7-7-7-7-7-| 


Outro 

Both Guitars: 
d|------------------------------------------------------------------------------------| 
A|------------------------------------------------------------------------------------| 
F|------------------------------------------------------------------------------------| 
C|------10h12-0--0--------10h12-0--0---0--0-------10h12-0--0--------10h12-0--0---0--0-| 
G|-0-0--10h12-0--0---0-0--10h12-0--0---0--0--0-0--10h12-0--0---0-0--10h12-0--0---0--0-| 
C|-0-0--10h12-0--0---0-0--10h12-0--0---0--0--0-0--10h12-0--0---0-0--10h12-0--0---0--0-| 
pm . .               . .                     . .               . .     

d|------------------------------------------------------------------------| 
A|--------------------------------------------------------------------10~-| 
F|--------------------------------------------------------------------7~--| 
C|------10h12-0--0--------10h12-0--0---0--0-------7h8-8-8------7--7---0~--| 
G|-0-0--10h12-0--0---0-0--10h12-0--0---0--0--8-8--7h8-8-8--8---7--7---0~--| 
C|-0-0--10h12-0--0---0-0--10h12-0--0---0--0--8-8--7h8-8-8--8---7--7---0~--| 
pm . .               . .                     . .           .   


************************************ 

| x    Dead note 
| (n)  Ghost note 
| h    Hammer-on 
| /    Slide up 
| ~    Vibrato 
| pm . Palm mute 

************************************ 
  

top 5 | a day to remember
top diversos
Outras músicas do artista letras do(a) A Day to Remember
Top cifras »Top artistas »
Petaxxon Comunicação Online
Cifras.com.br - Melhor e mais completo site de cifras e tablaturas do Brasil
Mais de 1 milhão de acordes de músicas cadastradas desde 2003
As informações contidas no nosso site são colaborações de seus usuários e podem conter erros, sendo assim, não nos responsabilizamos sobre nenhuma destas.
close
menos
mais
close
Cor dos acordes:

Cor da letra:

 

save
close
close
 
redimensionar