Cifras e Tablaturas
AC/DC

AC/DC

Born To Be Wild

Cifras Cancelar Versão de Impressão

AC/DC - Born To Be Wild

Tom:

  			AC/DC - Born To Be Wild 
 
Intro: 
 
e --------------------------------------------------------- 
b --------------------------------------------------------- 
g --------------------------------------------------------- 
d -----9-9-x-9-9-x-9-9-9-x-4-5----------------------------- 
a -----7-7-x-7-7-x-7-7-7-x-6-7----------------------------- 
E --------------------------------------------------------- 
 
/////////////////////////////////////////////////////////// 
 
e --------------------------------------------------------- 
b --------------------------------------------------------- 
g --------------------------------------------------------- 
d -----9-9-9-x-4-5----------------------------------------- 
a -----7-7-7-x-6-7----------------------------------------- 
E --------------------------------------------------------- 
 
e --------------------------------------------------------- 
b --------------------------------------------------------- 
g --------------------------------------------------------- 
d --------------------------------------------------------- 
a --------------------------------------------------------- 
E -----3--5--0----4x--------------------------------------- 
 
Repete Intro 
 
e --------------------------------------------------------- 
b --------------------------------------------------------- 
g --------------------------------------------------------- 
d ------9-9-9-x-4-5---------------------------------------- 
a ------7-7-7-x-6-7---------------------------------------- 
E --------------------------------------------------------- 
 
e --------------------------------------------------------- 
b --------------------------------------------------------- 
g --------------------------------------------------------- 
d --------------------------------------------------------- 
a --------------------------------------------------------- 
E -----3--5--0----4x--------------------------------------- 
 
Refrão 
 
e --------------------------------------------------------- 
b --------------------------------------------------------- 
g --------------------------------------------------------- 
d -----------9-------7---6-7----9-------------------------- 
a -----------7-------5---4-5----7----4x-------------------- 
E --------------------------------------------------------- 
 
Essa é a versão simplificada dela... 
 
Se qiserem falar comigo: [email protected] 
 
 
 

    	
fixar
fixar inscrever-se

enviado porenviado por: Eduzin
cifra enviadaCorrigida por: sem correções
logo top cifrasComente
ico música do artistaMúsicas deste artista
ico curtiuCurtiu?
ico destaqueDestaque
Petaxxon Comunicação Online

Cifras.com.br - Melhor e mais completo site de cifras e tablaturas do Brasil Mais de 1 milhão de acordes de músicas cadastradas desde 2003
As informações contidas no nosso site são colaborações de seus usuários e podem conter erros, sendo assim, não nos responsabilizamos sobre nenhuma destas.

close
menos
mais
close
Cor dos acordes:

Cor da letra:

close
Alinhar acordes a direita Alinhar acordes a esquerda Alinhar acordes em baixo Alinhar acordes no topo
close
  Mostrar todos os acordes Esconder acordes muito fáceis Esconder acordes fáceis Esconder acordes intermediários
redimensionar
glossário